PrimaNota.ru - самый крупный в мире бесплатный архив песенных текстов, аккордов, табулатур и нот


Guns N Roses - Patience live solo from tokyo - таба, видео

Регистрация Запомнить меня
Войти через:  Facebook Google Twitter Vk Yandex Mail.ru

Guns N Roses - Patience live solo from tokyo - таба, видео

Печатать
Просмотров: 209


h - hammer on
p - pull off
b - bend string up
H - hold bend
r - release bend
/ - slides
~ - vibrato


Here is one solo Slash played in the 1992
Use Your Illusion Tour in Tokyo (Patience)
It's not complete by now. I'll complete it later...



	   C		G	C	     E
	E|-------------------------------------------------|
	B|-15b---15r--13-12----15b----15h12----------------|
	G|----------------------------------14b-r12--------|
	D|------------------------------------------14-14--|
	A|-------------------------------------------------|
	E|-------------------------------------------------|

		C	     G		D
	E|------15b---13h12-13b--13r-12-12b-12~------------|
	B|-------------------------------------------------|
	G|--/12--------------------------------------------|
	D|-------------------------------------------------|
	A|-------------------------------------------------|
	E|-------------------------------------------------|

			  C		G
	E|------------------------17b--17h15-17----15------|
	B|-17b---15h17----15~--15---------------17---------|
	G|-------------16----------------------------------|
	D|-------------------------------------------------|
	A|-------------------------------------------------|
	E|-------------------------------------------------|

	    C				   E
	E|-17h15----15----17-15p14-15-14p12----------------|
	B|-------17----17-------------------15p13p12-------|
	G|-------------------------------------------------|
	D|-------------------------------------------------|
	A|-------------------------------------------------|
	E|-------------------------------------------------|

		C		G
	E|-------------------------------------------------|
	B|------------------------15--------------15br-15--|
	G|-14p12-----12-14~----------14brbrbr-12-----------|
	D|--------14--------14p12--------------------------|
	A|-------------------------------------------------|
	E|-------------------------------------------------|

	   D
	E|-------------------------------------------------|
	B|-------------------------------------------------|
	G|-16-14/12-14-12/11-12-11/9-11-9----9-------------|
	D|--------------------------------12---12p10p9-10~-|
	A|-------------------------------------------------|
	E|-------------------------------------------------|


	E|-------------------------------------------------|
	B|-------------------------------------------------|
	G|-------------------------------------------------|
	D|-10-9/7------------------------------------------|
	A|--------9-7/5-7p5--------------------------------|
	E|------------------7p5--3~------------------------|


	E|-------------------------------------------------|
	B|-----------15----15--17b--17-15/14-15-14/12-14---|
	G|-----14h16----16---------------------------------|
	D|-/16---------------------------------------------|
	A|-------------------------------------------------|
	E|-------------------------------------------------|


	E|-------------------------------------------------|
	B|-12/10-12-10/8-10-8/7-8-7/5-5p7p8-5p7p8-5p7p8----........
	G|-------------------------------------------------|
	D|-------------------------------------------------|
	A|-------------------------------------------------|
	E|-------------------------------------------------|

	and so on...

Any commentes and sugestions, send me an e-mail: jorgechavez77@hotmail.com




Добавлено: 24.01.2014
Другие материалы по этой песне:
  • Аккорды и текст

Страница создана 24.01.2014
http://primanota.ru/guns-n-roses/patience-live-solo-from-tokyo-chords.htm
Привет, Гость.
Предлагаем пройти революционный курс по гитаре.
Подарок от PrimaNota.Ru, забирай!