PrimaNota.ru - самый крупный в мире бесплатный архив песенных текстов, аккордов, табулатур и нот


Guano Apes - Heaven - текст песни, таба, видео

Регистрация Запомнить меня
Войти через:  Facebook Google Twitter Vk Yandex Mail.ru

Guano Apes - Heaven - текст песни, таба, видео

Печатать
Просмотров: 299
Авторы музыки: Sandra Nasić, Henning Rümenapp, Stefan Ude, Dennis Poschwatta
Авторы текста: Sandra Nasić
-------------------------------------------------------------------------------
			     HEAVEN - Guano Apes
-------------------------------------------------------------------------------
Tabbed by: Miky
Email: peta.mikulik@seznam.cz

Tuning: half step down

Hey! I've been missing this tab here, so this is how I play the song.
There are two or MORE guitars on the recording so this will be a bit simplified.
It works fine for me though and I hope it will work for you too.
Btw the wah-guitar is pretty easy so you'll have to figure it out yourself.

intro
eb|-0----0----0--|	|-------------|		|-----------|
Bb|-0----0----0--|	|-------------|		|-----------|
Gb|-0----0----0--|	|-11--9-9-----|    3x   |-----------|
Db|-5----5----5--|	|-11--9-9-----|		|-10-x-x-12-|
Ab|-3----3(2)-3--|	|-9---7-7-----|		|-10-x-x-12-|
Eb|-2----2----2--|	|-9---7-7-0-0-|	   	|-8--x-x-10-|

chorus
eb|-------------|	|-----------|
Bb|-------------|	|-----------|
Gb|-11--9-9-----|   3x  |-----------|
Db|-11--9-9-----|	|-10-x-x-12-| the whole thing twice, than Ebmin
Ab|-9---7-7-----|	|-10-x-x-12-|
Eb|-9---7-7-0-0-|	|-8--x-x-10-|

verse
eb|-0------------|-2-222-333--2-222-333-| |-------------|
Bb|-0------------|-0-000-000--0-000-000-| |-------------|
Gb|-0------------|-0-000-000--0-000-000-| |-------------|
Db|-2------------|-2----------2---------| |-4-2---------|
Ab|-2------------|----------------------| |-------3-----|
Eb|-0------------|----------------------| |-------------|

pre-chorus
eb|---------------------|
Bb|---------------------|
Gb|---------------------|
Db|-2---4---5----77-77--|
Ab|-2---4---5----77-77--|
Eb|-0---2---3----55-55--|

chorus
verse
pre-chorus

extended chorus
eb|-------------|	|-----------|
Bb|-------------|	|-----------|
Gb|-11--9-9-----|   3x  |-----------|
Db|-11--9-9-----|	|-10-x-x-12-| twice
Ab|-9---7-7-----|	|-10-x-x-12-|
Eb|-9---7-7-0-0-|	|-8--x-x-10-|

eb|--------------------------------------|	|-----------|
Bb|--------------------------------------|	|-----------|
Gb|-11-9----11-9-11-12--11-9-11-12--11-9-|  3x  |-----------|
Db|-11-9----11-9-11-12--11-9-11-12--11-9-|	|-10-x-x-12-|
Ab|-9--7----9--7-9--10--9--7-9--10--9--7-|	|-10-x-x-12-|
Eb|-9--7----9--7-9--10--9--7-9--10--9--7-|	|-8--x-x-10-|

eb|--------------------------------------|	|---|
Bb|--------------------------------------|	|---|
Gb|-11-9----11-9-11-12--11-9-11-12--11-9-|  3x  |---|
Db|-11-9----11-9-11-12--11-9-11-12--11-9-|	|-9-|
Ab|-9--7----9--7-9--10--9--7-9--10--9--7-|	|-9-|
Eb|-9--7----9--7-9--10--9--7-9--10--9--7-|	|-7-|

interlude
eb|-0----0---------------------0-2-3-|
Bb|-0----0---------------------------|
Gb|-0----0--than start picking-------| after this Ebmin
Db|-2----4--the chords---------------| fades in
Ab|-3----5--you can use this---------|
Eb|----------------------------------|

extended chorus w\ HEAVY flanging

final riff
eb|-------------------------------------------------------|
Bb|-------------------------------------------------------| 
Gb|-------------------------------------------------------| 
Db|-4-4-4-4-4-4---4-4-4---4-4-4---4-4-4-4-4-4---10-x-x-12-| 
Ab|-4-4-4-4-4-4---4-4-4---4-4-4---4-4-4-4-4-4---10-x-x-12-| 
Eb|-2-0-0-2-0-3---2-0-3---2-0-3---2-0-0-2-0-3---8--x-x-12-| 

play till the end; than 4 times Ebmin and try to play a bit 
w\ the pickup-switch or add harmonics

| /  slide up
| \  slide down
| h  hammer-on
| p  pull-off
| ~  vibrato
| +  harmonic
| x  Mute note
===============================================================================
Добавлено: 14.05.2012
Другие материалы по этой песне:
  • Аккорды и текст

Страница создана 14.05.2012
http://primanota.ru/guano-apes/heaven-chords.htm
Привет, Гость.
Предлагаем пройти революционный курс по гитаре.
Подарок от PrimaNota.Ru, забирай!