PrimaNota.ru - самый крупный в мире бесплатный архив песенных текстов, аккордов, табулатур и нот


Guano Apes - I Want It - аккорды и текст, таба, видео

Регистрация Запомнить меня
Войти через:  Facebook Google Twitter Vk Yandex Mail.ru

Guano Apes - I Want It - аккорды и текст, таба, видео

Печатать
Просмотров: 159
Авторы музыки: Sandra Nasić, Henning Rümenapp, Stefan Ude, Dennis Poschwatta
Авторы текста: Sandra Nasić
I Want It
Guano Apes
		I Want It

 		Listen to the track for the rythmic of the right hand:
		[D#---------------------------------
		A#---------------------------------
		F#---------------------------------
 		[C#--10-10-10-8-x-8-x-8-------------] RIFF 1
		G#--10-10-10-8-x-8-x-8-------------
		D#--8--8--8--6-x-6-x-6-------------

		---------------------------------
		---------------------------------
 		[---------------------------------] RIFF 2
		--x-x-x--10-10-10--8-------------
		--x-x-x--10-10-10--8-------------
		--x-x-x--8--8--8---6-------------

		------------------------------------------------------
 		[---11-11-11-11-11-11----------------------------------] Fast
		--------------------10-10-10-10-10-10-10--9-9-9-9-9-9-
		------------------------------------------------------
 		[------------------------------------------------------] RIFF A
		------------------------------------------------------

		------------------------------
 		[------------------------------] RIFF 3
		------------------------------
		-8--3--2--10------------------
		-8--3--2--10------------------
		-6--1--0--8-------------------]

 		RIFF 1 } X4
 		RIFF 2 } X4
 		RIFF 1 } X5
 		RIFF 2 } X4
 		RIFF 1 } X5
 		RIFF A } X2
 		RIFF 3 } X6
 		RIFF 3 } X4 a little bit different more fast
 		RIFF 1 } X4
 		RIFF A } X2
Добавлено: 06.12.2013
Другие материалы по этой песне:
  • Аккорды и текст

Страница создана 02.03.2012
http://primanota.ru/guano-apes/i-want-it-chords.htm
Привет, Гость.
Предлагаем пройти революционный курс по гитаре.
Подарок от PrimaNota.Ru, забирай!