PrimaNota.ru - самый крупный в мире бесплатный архив песенных текстов, аккордов, табулатур и нот


Guano Apes - Diokhan - текст песни, бас-таба, видео

Регистрация Запомнить меня
Войти через:  Facebook Google Twitter Vk Yandex Mail.ru

Guano Apes - Diokhan - текст песни, бас-таба, видео

Печатать
Просмотров: 249
Уроки эстрадного вокала в Санкт-Петербурге
Авторы музыки: Guano Apes
Авторы текста: Sandra Nasić
Band: Guano Apes
Song: Diokhan
Album: Walking On A Thin Line
Tuning: Drop-D
Tabbed By ClosedRoad

Couldn't find this tab anywere so I tought lets figure out..and here it is.

Alltrough the song listen for perfect timing

/ : slide up
\ : Slide down
~ : let note ring

Only with the intro and end a 5-string needed

Intro.Noise
G --------------------|
D --------------------|
A --------------------|
D --------------------|
B -0~~-0-0-0-0/3\2/5--|

Intro
G ----------------|
D ----------------| 4x
A -----21-----21--| those are 1's and 2's
D -211----21~-----|   (21~ --> let note ring for a short time)

Verse
G ---------------------|     -----------------------|
D ---------------------| 3x ------------------------| 1x
A ----------------2\1--|    ------------------------|
D -11-111-111-111------|    -11-111-11//5\\2//5\\1--|

G ---------------------|   --------------------|
D ---------------------|3x --------------------| 1x
A ----------------2\1--|   --------------------|
D -11-111-111-111------|   -11-111-1111111111--|

After Verse
G -----------------|   ----------------|
D -----------------|2x ----------------|2x
A -----21------21--|   -----54-----54--|
D -211-----21~-----|   -544----54~-----|

G -----------------|   ---------------|   -----------------|
D -----------------|2x ---------------|1x -----------------| 1x
A -----21------21--|   -----54-----54-|   -----54----------|
D -211-----21~-----|   -544----54~----|   -544----54-1111--|

Verse
After Verse

Chorus
G ------------------------------------|
D ------------------------------------| 2x
A -----2~---------------2~------------|
D -1~------3~--4~---1~-----3~--4-3-2--|

Bridge
G --------------------------|
D --------------------------|2x
A --------------------------|
D -11-11-11-11-11-11-11-11--| (1's)

Bridge II (not sure about this part)
G ---------------|
D ---------------|
A ---------------|
D -111343333543--| keep playing till it stops

Chorus 1x

Chrous variation
G -----------------------------------------|
D -----------------------------------------|
A ----2~--------------2~-------------------|
D -1~-----3~--4~---1~-----3//7\5/7\5/7\\1--|

G ----------------------------------------------------|
D ----------------------------------------------------|
A --------2-222--------------------2-222--------------|
D -1-111--------3-333-4-444--1-111-------3-333-4-3-2--|

G -----------------------------------------|
D -----------------------------------------|
A -------2-222---------------------2-222---|
D -1-111-------3-333-4-444--1-111--------3-|

End
G ---------------------------------------------|
D ---------------------------------------------| 2x
A ---------------------------------------------|
D -000100000001001000010010100001000010001010--|

G ----------------------|
D ----------------------|
A ----------------------|
D ----------------------|
B -0~--0/2\0---------0--|

Finally here it is
Feel free to correct me.
Have Fun
Greetings ClosedRoad
Добавлено: 31.03.2012
Другие материалы по этой песне:
  • Аккорды и текст

Страница создана 31.03.2012
http://primanota.ru/guano-apes/diokhan-chords.htm
Привет, Гость.
Предлагаем пройти революционный курс по гитаре.
Подарок от PrimaNota.Ru, забирай!