PrimaNota.ru - самый крупный в мире бесплатный архив песенных текстов, аккордов, табулатур и нот


Greg Holden - Days - таба, видео

Регистрация Запомнить меня
Войти через:  Facebook Google Twitter Vk Yandex Mail.ru

Greg Holden - Days - таба, видео

Печатать
Просмотров: 262
INTRO:

E--0-------------------------------5------------------------------------------|
A------2------2/4----------------------7---7----------------------------------|
D------2------------2---4/6------------7---7-------4---h6p-4----2-------------|
G------1-------------------------------6---6----------------------------------|
B------0-------------------------------5---5----------------------------------|
e------0-------------------------------5---5----------------------------------|
     (strummed)                       (strummed)

E--0-------------------------------5----------------7-----7-------------------|
A------2------2/4----------------------7---7--------9-----9-------------------|
D------2------------2---4p2------------7---7--------9-----9-------------------|
G------1-------------------------------6---6--------8-----8-------------------|
B------0-------------------------------5---5--------7-----7-------------------|
e------0-------------------------------5---5--------7-----7-------------------|
     (strummed)                       (strummed              )

VERSE:

E                G#m
How long will it take you
   F#m             B
To finish all your plans
    E         G#m
And will I be included
    F#m           B
And will you understand
       E             G#m
When I ask you every day
          F#m           B
Would you please let me stay
F#m      B        E
One more day with you

--Play INTRO once--

--VERSE 2: same as VERSE--

CHORUS:

    E                  B
The days are moving so fast
      F#m         B
I can hardly keep afloat
    E                  B
The days are moving so fast
G#m                     F#m
That I can only let you go
F#m        B
That I can only let you go

--Play INTRO again--
Добавлено: 04.06.2012
Другие материалы по этой песне:
  • Аккорды и текст

Страница создана 04.06.2012
http://primanota.ru/greg-holden/days-chords.htm
Привет, Гость.
Предлагаем пройти революционный курс по гитаре.
Подарок от PrimaNota.Ru, забирай!