PrimaNota.ru - самый крупный в мире бесплатный архив песенных текстов, аккордов, табулатур и нот


Greg Holden - Get Inside Out - аккорды и текст, видео

Регистрация Запомнить меня
Войти через:  Facebook Google Twitter Vk Yandex Mail.ru

Greg Holden - Get Inside Out - аккорды и текст, видео

Печатать
Просмотров: 93
Get Inside Out
Greg Holden
Greg Holden - Get Inside Out

First tab by me (roland3do). I usually play the chords like one bass note and then 
three lower - you'll get it probably :) 

Capo 4 

C
I never heard of bigger words in all my life, 
C                                            G
But it's not true it wasn't you who cast the light, 
F                      C             G
I fell down off every wall I ever built 
F                    C             G
I gave way to every shadow shading guilt 
Am                G         Am       G            C
And then I looked inside and told inside to get out 

I never known or over thrown what someone had 
I only saw what we all saw I never asked 
I payed attention to the sutleties in space 
I never mentioned all the miseries I faced 
But then I looked inside and told inside to get out 

Bridge:
e|--------------------------------3-3------------------------------|
B|--1-1-----------1-1-------------0-0--3h5--3-1------1-------------|
G|--0-0--0---0----2-2--0h2-5-2----0-0--0----0--------0h2--0-0------|
D|--2-2--0h2-5--3------3----------------------------------3-2-0----|
A|3----------------------------------------------3-3---------------|
E|------------------------------3----------------------------------|


How many ways are there to say that I forgot, 
Figured out all the details and the things that I am not 
I worked hard to break away from troubled time 
I moved far in state to join the line 
Because I looked inside and I told inside to get out 

I never thought it would be easy to escape 
But I was ready holding courage in my fate 
I opened fire on all the things that scared me most 
I never tired I didn't retreat from my post 
I only looked inside and I told inside yes I only looked inside 
And I told inside you should only look inside and tell inside to get out

Bridge: x2
e|--------------------------------3-3------------------------------|
B|--1-1-----------1-1-------------0-0--3h5--3-1------1-------------|
G|--0-0--0---0----2-2--0h2-5-2----0-0--0----0--------0h2--0-0------|
D|--2-2--0h2-5--3------3----------------------------------3-2-0----|
A|3----------------------------------------------3-3---------------|
E|------------------------------3----------------------------------|

End on C
Добавлено: 16.06.2013
Другие материалы по этой песне:
  • Аккорды и текст

Страница создана 16.06.2013
http://primanota.ru/greg-holden/get-inside-out-chords.htm
Привет, Гость.
Предлагаем пройти революционный курс по гитаре.
Подарок от PrimaNota.Ru, забирай!