PrimaNota.ru - самый крупный в мире бесплатный архив песенных текстов, аккордов, табулатур и нот


Graham Coxon - What Ya Gonna Do Now - таба, видео

Регистрация Запомнить меня
Войти через:  Facebook Google Twitter Vk Yandex Mail.ru

Graham Coxon - What Ya Gonna Do Now - таба, видео

Печатать
Просмотров: 113
tabbed by jim (france)

new single!

h:hammer on
~:let ring
b:bend


intro

guitar 1
e-----------------------------------------------------------------------|
b--11h12-11h12-11h12-11h12-11h12--10-10--7-7----------------------------|
g-----------------------------------------------------------------------|
d-----------------------------------------------------------------------|
a-----------------------------------------------------------------------|
E-----------------------------------------------------------------------|

e-----------------------------------------------------------------------|
b--11h12-11h12-11h12-11h12-11h12--12b-14-12b----------------------------|
g-----------------------------------------------------------------------|
d-----------------------------------------------------------------------|
a-----------------------------------------------------------------------|
E-----------------------------------------------------------------------|

e-----------------------------------------------------------------------|
b--11h12-11h12-11h12-11h12-11h12--10-10--7-7----------------------------|
g-----------------------------------------------------------------------|
d-----------------------------------------------------------------------|
a-----------------------------------------------------------------------|
E-----------------------------------------------------------------------|

e-----------------------------------------------------------------------|
b--11h12-11h12-11h12-11h12-11h12--14^^^^-13-12^^^^----------------------|
g-----------------------------------------------------------------------|
d-----------------------------------------------------------------------|
a-----------------------------------------------------------------------|
E-----------------------------------------------------------------------|

guitar 2

e-----------------------------------------------------------------------|
b-----------------------------------------------------------------------|
g----------7~--9~-------------------------------------------------------|
d--7~--4~--7~--9~--------  x2  -----------------------------------------|
a--7~--4~--5~--7~-------------------------------------------------------|
E--5~--2~--5~--7~-------------------------------------------------------|

verse

e-----------------------------------------------------------------------|
b-----------------------------------------------------------------------|
g--------------7-7~--9-9~-----------------------------------------------|
d--7-7~--4-4~--7-7~--9-9~--------  x2  ---------------------------------|
a--7-7~--4-4~--5-5~--7-7~-----------------------------------------------|
E--5-5~--2-2~--5-5~--7-7~-----------------------------------------------|

bridge

e------------------------------------------------------------------------|
b------------------------------------------------------------------------|
g--6-6-6-6--7-7-7-7---4-4-4-4--7-7-7--9----------------------------------|
d--6-6-6-6--7-7-7-7---4-4-4-4--7-7-7--9----------------------------------|
a--4-4-4-4--5-5-5-5---2-2-2-2--5-5-5--7----------------------------------|
E--4-4-4-4--5-5-5-5---2-2-2-2--5-5-5--7----------------------------------|
   ------- x4 -----------------------------------------------------------|

verse

e-----------------------------------------------------------------------|
b-----------------------------------------------------------------------|
g--------------7-7~--9-9~-----------------------------------------------|
d--7-7~--4-4~--7-7~--9-9~--------  x2  ---------------------------------|
a--7-7~--4-4~--5-5~--7-7~-----------------------------------------------|
E--5-5~--2-2~--5-5~--7-7~-----------------------------------------------|

bridge

e------------------------------------------------------------------------|
b------------------------------------------------------------------------|
g--6-6-6-6--7-7-7-7---4-4-4-4--7-7-7--9----------------------------------|
d--6-6-6-6--7-7-7-7---4-4-4-4--7-7-7--9----------------------------------|
a--4-4-4-4--5-5-5-5---2-2-2-2--5-5-5--7----------------------------------|
E--4-4-4-4--5-5-5-5---2-2-2-2--5-5-5--7----------------------------------|
   ------- x4 -----------------------------------------------------------|

chorus

e-----------------------------------------------------------------------|
b-----------------------------------------------------------------------|
g-----------------------------------------------------------------------|
d--7-7~--4-4~--3-3~-----------------------------------------------------|
a--7-7~--4-4~--3-3~-----------------------------------------------------|
E--5-5~--2-2~--1-1~--0-2-0-4-0-2-0--0-2-0-4-0-2-0-----------------------|

e-----------------------------------------------------------------------|
b-----------------------------------------------------------------------|
g-----------------------------------------------------------------------|
d--7-7~--4-4~--3-3~-----------------------------------------------------|
a--7-7~--4-4~--3-3~-----------------------------------------------------|
E--5-5~--2-2~--1-1~--0-2-0-4-0-2-0b-------------------------------------|


verse

e-----------------------------------------------------------------------|
b-----------------------------------------------------------------------|
g--------------7-7~--9-9~-----------------------------------------------|
d--7-7~--4-4~--7-7~--9-9~--------  x2  ---------------------------------|
a--7-7~--4-4~--5-5~--7-7~-----------------------------------------------|
E--5-5~--2-2~--5-5~--7-7~-----------------------------------------------|

bridge

e------------------------------------------------------------------------|
b------------------------------------------------------------------------|
g--6-6-6-6--7-7-7-7---4-4-4-4--7-7-7--9----------------------------------|
d--6-6-6-6--7-7-7-7---4-4-4-4--7-7-7--9----------------------------------|
a--4-4-4-4--5-5-5-5---2-2-2-2--5-5-5--7----------------------------------|
E--4-4-4-4--5-5-5-5---2-2-2-2--5-5-5--7----------------------------------|
   ------- x4 -----------------------------------------------------------|

chorus

e-----------------------------------------------------------------------|
b-----------------------------------------------------------------------|
g-----------------------------------------------------------------------|
d--7-7~--4-4~--3-3~-----------------------------------------------------|
a--7-7~--4-4~--3-3~-----------------------------------------------------|
E--5-5~--2-2~--1-1~--0-2-0-4-0-2-0--0-2-0-4-0-2-0-----------------------|

e-----------------------------------------------------------------------|
b-----------------------------------------------------------------------|
g-----------------------------------------------------------------------|
d--7-7~--4-4~--3-3~-----------------------------------------------------|
a--7-7~--4-4~--3-3~-----------------------------------------------------|
E--5-5~--2-2~--1-1~--0-2-0-4-0-2-0--0-2-0-4-0-2-0-----------------------|

e-----------------------------------------------------------------------|
b-----------------------------------------------------------------------|
g-----------------------------------------------------------------------|
d--7-7~--4-4~--3-3~-----------------------------------------------------|
a--7-7~--4-4~--3-3~-----------------------------------------------------|
E--5-5~--2-2~--1-1~--0-2-0-4-0-2-0--0-2-0-4-0-2-0-----------------------|

e-----------------------------------------------------------------------|
b-----------------------------------------------------------------------|
g-----------------------------------------------------------------------|
d--7-7~--4-4~--3-3~-----------------------------------------------------|
a--7-7~--4-4~--3-3~-----------------------------------------------------|
E--5-5~--2-2~--1-1~--0-2-0-4-0-2-0--------------------------------------|

intro

guitar 1
e-----------------------------------------------------------------------|
b--11h12-11h12-11h12-11h12-11h12--10-10--7-7----------------------------|
g-----------------------------------------------------------------------|
d-----------------------------------------------------------------------|
a-----------------------------------------------------------------------|
E-----------------------------------------------------------------------|

e-----------------------------------------------------------------------|
b--11h12-11h12-11h12-11h12-11h12--12b-14-12b----------------------------|
g-----------------------------------------------------------------------|
d-----------------------------------------------------------------------|
a-----------------------------------------------------------------------|
E-----------------------------------------------------------------------|

e-----------------------------------------------------------------------|
b--11h12-11h12-11h12-11h12-11h12--10-10--7-7----------------------------|
g-----------------------------------------------------------------------|
d-----------------------------------------------------------------------|
a-----------------------------------------------------------------------|
E-----------------------------------------------------------------------|

e-----------------------------------------------------------------------|
b--11h12-11h12-11h12-11h12-11h12--14^^^-13-12h13-12h13-12h13^^----------|
g-----------------------------------------------------------------------|
d-----------------------------------------------------------------------|
a-----------------------------------------------------------------------|
E-----------------------------------------------------------------------|

guitar 2

e-----------------------------------------------------------------------|
b-----------------------------------------------------------------------|
g----------7~--9~-------------------------------------------------------|
d--7~--4~--7~--9~--------  x2  -----------------------------------------|
a--7~--4~--5~--7~-------------------------------------------------------|
E--5~--2~--5~--7~-------------------------------------------------------|

bridge

e------------------------------------------------------------------------|
b------------------------------------------------------------------------|
g--6-6-6-6--7-7-7-7---4-4-4-4--7-7-7--9----------------------------------|
d--6-6-6-6--7-7-7-7---4-4-4-4--7-7-7--9----------------------------------|
a--4-4-4-4--5-5-5-5---2-2-2-2--5-5-5--7----------------------------------|
E--4-4-4-4--5-5-5-5---2-2-2-2--5-5-5--7----------------------------------|
   ------- x4 -----------------------------------------------------------|

chorus

e-----------------------------------------------------------------------|
b-----------------------------------------------------------------------|
g-----------------------------------------------------------------------|
d--7-7~--4-4~--3-3~-----------------------------------------------------|
a--7-7~--4-4~--3-3~-----------------------------------------------------|
E--5-5~--2-2~--1-1~--0-2-0-4-0-2-0--0-2-0-4-0-2-0-----------------------|

e-----------------------------------------------------------------------|
b-----------------------------------------------------------------------|
g-----------------------------------------------------------------------|
d--7-7~--4-4~--3-3~-----------------------------------------------------|
a--7-7~--4-4~--3-3~-----------------------------------------------------|
E--5-5~--2-2~--1-1~--0-2-0-4-0-2-0--0-2-0-4-0-2-0-----------------------|

e-----------------------------------------------------------------------|
b-----------------------------------------------------------------------|
g-----------------------------------------------------------------------|
d--7-7~--4-4~--3-3~-----------------------------------------------------|
a--7-7~--4-4~--3-3~-----------------------------------------------------|
E--5-5~--2-2~--1-1~--0-2-0-4-0-2-0--0-2-0-4-0-2-0-----------------------|

e-----------------------------------------------------------------------|
b-----------------------------------------------------------------------|
g-----------------------------------------------------------------------|
d--7-7~--4-4~--3-3~------------------3////------------------------------|
a--7-7~--4-4~--3-3~------------------3////------------------------------|
E--5-5~--2-2~--1-1~--0-2-0-4-0-2-0---1////------------------------------|

ENJOY!!!
Добавлено: 25.03.2012
Другие материалы по этой песне:
  • Аккорды и текст

Страница создана 25.03.2012
http://primanota.ru/graham-coxon/what-ya-gonna-do-now-chords.htm
Привет, Гость.
Предлагаем пройти революционный курс по гитаре.
Подарок от PrimaNota.Ru, забирай!