PrimaNota.ru - самый крупный в мире бесплатный архив песенных текстов, аккордов, табулатур и нот


Graham Coxon - I Can'T Look At Your Skin - текст песни, таба, видео

Регистрация Запомнить меня
Войти через:  Facebook Google Twitter Vk Yandex Mail.ru

Graham Coxon - I Can'T Look At Your Skin - текст песни, таба, видео

Печатать
Просмотров: 139
Авторы музыки: Graham Coxon
Авторы текста: Graham Coxon
Tabbed By: Saviano Perry (savianoperry)
smashingpumpkins11@gmail.com

I Can't Look At Your Skin
Graham Coxon
Love Travels at Illegal Speeds

fun song to play, the solo is a little choppy but you can alter it to fit your needs.

Intro:
e|--------| 
B|--------|
G|-88-66--|
D|-88-66--|
A|-66-44--|
E|--------|

e|------------------| 
B|------------------|
G|---------6---6----|
D|-6-66666-6-6-6----|x4
A|-6-66666-4-6-4----|
E|-4-44444---4------|
PM   _____
Verse:
e|---------------------------------3~-1~-----------------------------------| 
B|---------------------------------3~-1~-----------------------------------|
G|---------6---6-------------------4~-2~-----------6---6------------6---6--|
D|-6-66666-6-6-6--6-666666-444444--5~-3~--6-666666-6-6-6---6-666666-6-6-6--|
A|-6-66666-4-6-4--6-666666-444444--5~-3~--6-666666-4-6-4---6-666666-4-6-4--|
E|-4-44444---4----4-444444-222222--5~-1~--4-444444---4-----4-444444---4----|
PM   _____          _____________           ______           ______

e|-----------------------------------------------------------------------------------| 
B|-----------------------------------------------------------------------------------|
G|--------- 6---6-------------------------66-------66-------66---9999999-777777-6---6|
D|-6-666666-6-6-6--6-666666-444444--6-666-66-66666-66-66666-66---xxxxxxx-xxxxxx-6-6-6|
A|-6-666666-4-6-4--6-666666-444444--6-666-44-66666-44-66666-44---7777777-555555-4-6-4|
E|-4-444444---4----4-444444-222222--4-444----44444----44444-----------------------4--|
PM   _____               _____________    ___    _____    _____

e|----------------555-333-----------------| 
B|----------------555-333-----------------|
G|----------6---6-666-444-66----6---------|
D|-6-666666-6-6-6-777-555-66-66-6---------|
A|-6-666666-4-6-4-777-555-44-66-4---------|
E|-4-444444---4---555-333----44-----------|
PM   ______

Chorus: 

e|------------------| 
B|------------------|
G|---6------6-------|
D|---6-6----6-6-----|
A|---4-6----4-6-----|
E|-----4------4-----|

Solo:
e|-------------------------------------------------------------------------| 
B|--------------------------------56-56-56-5-----------------56-45-34-23---|
G|--5555-3-5/6-5-5555-3-------35b-56-56-56-5---5656-5p4---3~---------------|
D|-------------------------35---------------------------5------------------|
A|-----------------------35------------------------------------------------|
E|---------------------35--------------------------------------------------|
Добавлено: 27.07.2013
Другие материалы по этой песне:
  • Аккорды и текст

Страница создана 07.06.2012
http://primanota.ru/graham-coxon/i-cant-look-at-your-skin-chords.htm
Привет, Гость.
Предлагаем пройти революционный курс по гитаре.
Подарок от PrimaNota.Ru, забирай!