PrimaNota.ru - самый крупный в мире бесплатный архив песенных текстов, аккордов, табулатур и нот


Graham Coxon - Far From Everything - текст песни, таба, видео

Регистрация Запомнить меня
Войти через:  Facebook Google Twitter Vk Yandex Mail.ru

Graham Coxon - Far From Everything - текст песни, таба, видео

Печатать
Просмотров: 172
Уроки эстрадного вокала в Санкт-Петербурге
A truly incredible song, yet really quite simple.....please give comments/corrections/ratings

~ = glide
h = hammer on
p = pull off

Long pauses between each phrase....during these just mess around with some harmonics or 
during these and make sure to let them ring

Work out timing for yourself....

e|-------------------5---7-7--5---7-----------------5--7--5---7~10---5------|
B|--------------------------------------------------------------------------|
G|-----------0-----------------------------------0--------------------------|
D|-----2~~4--------------------------------2~~4-----------------------------|
A|---2-----------------------------------2----------------------------------|
E|-0-----------------------------------0------------------------------------|

e|--------------3h5-3--2-2h3p2p0------|
B|-------0--1-------------------------|
G|-----2------------------------------|
D|---2--------------------------------| and repeat
A|-0----------------------------------|
E|------------------------------------|


then...
e|--------------------------------------------------------------------------|
B|--------------3-5-3--------7-8--------------------------------------------|
G|------------3-------3-0----8-9-------------3-5-3--------7-8---------------|
D|---------5-------------------------------3-------3-0----8-9---------------|
A|--------------------------------------5-----------------------------------|
E|-0--2--3-------------------------2--3-------------------------------------|

e|--------------0------|
B|-0-1-1-0------5------|
G|-4-------2-0---------|
D|---------------------| and repeat again
A|---------------------|
E|---------------------|

I'll try and work out some more for the future and continue adding to this tab...
Добавлено: 02.03.2012
Другие материалы по этой песне:
  • Аккорды и текст

Страница создана 02.03.2012
http://primanota.ru/graham-coxon/far-from-everything-chords.htm
Привет, Гость.
Предлагаем пройти революционный курс по гитаре.
Подарок от PrimaNota.Ru, забирай!