PrimaNota.ru - самый крупный в мире бесплатный архив песенных текстов, аккордов, табулатур и нот


Graham Coxon - Bitter Tears - текст песни, таба, видео

Регистрация Запомнить меня
Войти через:  Facebook Google Twitter Vk Yandex Mail.ru

Graham Coxon - Bitter Tears - текст песни, таба, видео

Печатать
Просмотров: 177
Graham Coxon - Bitter Tears
Album - The Kiss Of Morning

(tabbed by ernestowendeler@hotmail.com)

riff1
----------------------------------------------------------|
----------------------------------------------------------|
-(0)-(0)-(0)-(0)--^0^-------2/4b-4-----5\2-----5----------|
--2---2---2---2----------2h4-------3-------3/4---4---4----|
----3---3---2---2--3-2-0-------------2-------------3-3----|
----2---2---2---2-----------------------------------------|

riff1
Why no pills today? Bitter tears Seven am,
and wasting away, bitter tears
Why no knock on my door? Bitter tears
Why did I come here for? Bitter tears

riff1
How much do you need? Bitter tears
Give me love and see me bleed, bitter tears
Please don't hurt me tonight, bitter tears
I've lost the will to fight, bitter tears

F   G   A

Bb       F                  c          G
It's our intimacy that I'm missing you see

Bb         F             A
When there's no-one around

Bb        F                 c         G
Our intimacy is what's missing for me

Bb  F   A   A#

riff1
If I go then I'll go clean, bitter tears
Making love in silent dreams, bitter tears
Burn the books of history, bitter tears
Build a home for you and me, bitter tears

riff2
------------------------------|
-------------9/7/9------------|
-----9/11/8b------------------|
-7-6--------------------------|
--------------------7-8-7-5/8-|
------------------------------|
Добавлено: 24.02.2012
Другие материалы по этой песне:
  • Аккорды и текст

Страница создана 24.02.2012
http://primanota.ru/graham-coxon/bitter-tears-chords.htm
Привет, Гость.
Предлагаем пройти революционный курс по гитаре.
Подарок от PrimaNota.Ru, забирай!