PrimaNota.ru - самый крупный в мире бесплатный архив песенных текстов, аккордов, табулатур и нот


Gorillaz - Punk - аккорды и текст, таба, бас-таба, видео

Регистрация Запомнить меня
Войти через:  Facebook Google Twitter Vk Yandex Mail.ru

Gorillaz - Punk - аккорды и текст, таба, бас-таба, видео

Печатать
Просмотров: 405
Авторы музыки: Gorillaz

Punk
Gorillaz
Artist : Gorillaz
Album: Gorillaz
2001
Song: Punk
Tuning : Standard
Tabbed By : Jorge Abarca

The song is very simple

Verse
e ----------------------------------------
B ----------------------------------------
G ---7--7-7-----5-5--5-------7--------------
D ---7--7-7-----5-5--5-------7-------------
A ---5--5-5-----3-3--3-------5--------------
E ---------------------------------------

Chorus
play this part pretty fast
e ----------------------------------------
B ----------------------------------------
G ---7--7--5-5-5---7-7-7--5-------------
D ---7--7--5-5-5---7-7-7--5-------------
A ---5--5--3-3-3---5-5-5--3-------------
E ---------------------------------------

Thats it  Play the chorus and finish the chorus with the verse. E-mail me if 
u have a better way of playing it or any corrections 
Trancermunkey@hotmail.com
     
Добавлено: 29.11.2013
Другие материалы по этой песне:

Страница создана 26.04.2012
http://primanota.ru/gorillaz/punk-chords.htm
Привет, Гость.
Предлагаем пройти революционный курс по гитаре.
Подарок от PrimaNota.Ru, забирай!