PrimaNota.ru - самый крупный в мире бесплатный архив песенных текстов, аккордов, табулатур и нот


Gorillaz - Gorillaz - таба, видео

Регистрация Запомнить меня
Войти через:  Facebook Google Twitter Vk Yandex Mail.ru

Gorillaz - Gorillaz - таба, видео

Печатать
Просмотров: 224
The GoRiLLaZ Self Titled Item.

By Duncan Cannon
Tracks (* means no tab. its just beats)
----------------
1.Re-Hash
2.5/4
3.Tomorrow Comes Today*
4.New Genious(Brother)*
5.Clint Eastwood
6.Man Research(Clapper)*
7.Punk
8.Sound Check(Gravity)
9.Double Bass*
10.Rock The House*
11.19-2000
12.Latin Simone(Que Pasa Contigo)
13.Starshine
14.Slow Country
15.M1A1
16.Dracula*
17.Left Hand Suzuki Method
----------------------------------
Re-Hash. This Is The Basic Riff, And So To Make Room For This Short Tab, Here's The
I Know There's Probably More To This Tab, But This Is The Main Riff.

I Did This Riff In D Standard (whole step down) if you're playing in standard, play 
below 2 frets lower.

|----------------------------------------------|
|----------------------------------------------|
|----------------------------------------------|
|----------------------------------------------|
|-----------9-9---7-7-7--7\--9-9--5-5-5--8-9-9-|
|-----------7-7---5-5-5--5\--7-7--7-7-7--6-7-7-|

|---------------------------------------------|
|---------------------------------------------|
|---------------------------------------------|
|---------------------------------------------|
|-----------9-9--12-12--14-14--9-9------------|
|-----------7-7--10-10--12-12--7-7------------|

Chorus. The Chorus Has No Guitar But There Is The Slide Before The Guitar. Just Hit The
9/7 Power Chord and slide down.

-----------------------------------------------------------------------------

5/4 FiVE FouR

This One, Once Again, I'm Unsure About. Then Yet, I'm Unsure About Most Tabs I Do Haha.

Verse And Intro (Acoustic or Clean First, Then A Little Distortion)
|-------------------------------|
|-------------------------------|
|-------3--3--3-----------------|
|-3--3--3--3--3--3--3--7--7--7--|
|-3--3--1--1--1--3--3--7--7--7--|
|-1--1-----------1--1--5--5--5--|

Chorus

|----
|----
|-7--
|-7--
|-5-- i dont count strums.
|----
-----------------------------------------------------------------------------

Tomorrow Comes Today.

I'm Sorry. But I Couldn't Do This. This Song Doesnt have A Guitar In it. I Was Thinking
Doing Chords, But I'm Not That Smart On Doing Chords. I Know The Chord, Just Cant Name
Chord It Is. Wish I Had A Chord Chart.

Plus, This Song's Just Too Good. :D
-----------------------------------------------------------------------------
New Genious (Brother)
Once Again No Guitar.
-----------------------------------------------------------------------------

Clint Eastwood

The Highly Acclaimed Clint Eastwood. This Is A Good Song To Chill To.

-----------------------------|------------------------------------|
------7---7-------7----------|-----------7--7--------7------------|
------8---8-------8----------|*----------8--8--------8------------|
------8---8-------8----------|*----------8--8--------8------------|
--6---6---6-------6----------|-------6---6--6--------6------------|
---------------6-------------|-------------------7----------------|

I Have To Give The Credit To Tezzar For This One. He Nailed It I Could'nt Make A More perfect
Tab Than This One.
-----------------------------------------------------------------------------

Man Research(clapper)
No 'Tar Mayun.
-----------------------------------------------------------------------------

Punk.
Their Shortest Song On The Album. This One Is About The Only tab I'm 99% Sure About.

VeRSE
|----------------------------------|
|----------------------------------|
|-9-9-9-9-7-7-7-9------------------|
|-9-9-9-9-7-7-7-9------------------|
|-7-7-7-7-5-5-5-7------------------|
|----------------------------------|

|----------------------------------|
|----------------------------------|
|-9-9-9-9-7-7-7-5------------------|
|-9-9-9-9-7-7-7-5------------------|
|-7-7-7-7-5-5-5-3------------------|
|----------------------------------|
CHoRUS
|-----------------------------------------------------------------------------|
|-----------------------------------------------------------------------------|
|-8-8-8-8-9-9-9-9-------------------------------------------------------------|
|-8-8-8-8-9-9-9-9-------------------------------------------------------------|
|-6-6-6-6-7-7-7-7-------------------------------------------------------------|
|-----------------------------------------------------------------------------|
------------------------------------------------------------------------------|
Sound Check (gravity)

|-------------------------------------------------------------------------------|
|-------------------------------------------------------------------------------|
|-------------------------------------------------------------------------------|
|---7--7--7----5--5---7--7------------------------------------------------------|
|---7--7--7----5--5---7--7------------------------------------------------------|
|---5--5--5----3--3---5--5-- Repeat This. The Guitars Just In  the intro--------|
--------------------------------------------------------------------------------|
Double Bass.
No Guitar Just Bass. This Isn't A Bass Tab so.... yeah.
-----------------------------------------------------------------------------
Rock The House
No Guitar. Just A Flute Thing.
-----------------------------------------------------------------------------
19-2000

Gotta Give Props To Andrew Brown (abrown22@start.com.au)
he made this tab so perfect i couldn't do anything about it.

|---------------------------------------------------|
|---------------------------------------------------|
|------------------12----------------------12-------|
|----------9-12-9------12----------9-12-9------12---|
|----10----------------------10---------------------|
|---------------------------------------------------|

|---------------------------------------------------|
|---------------------------------------------------|
|-------------------14--------------------12--------|
|---------11-14-11------14--------9-12-9------12----|
|----12----------------------10---------------------|
|---------------------------------------------------|

The at the end of the song they play it with an extra note:

|-------------------------------------------------------|
|-------------------------------------------------------|
|------------------12-----------------------12----------|
|----------9-12-9------12--9--------9-12-9------12--9---|
|----10-----------------------10------------------------|
|-------------------------------------------------------|

|-----------------------------------------------------------------------------|
|-----------------------------------------------------------------------------|
|-------------------14------------------------12------------------------------|
|---------11-14-11------14--11--------9-12-9------12--9-----------------------|
|----12-------------------------10--------------------------------------------|
|-----------------------------------------------------------------------------|
------------------------------------------------------------------------------|
Latin Simone (Que Pasa Contigo)

I Chorded This One Out. I Got Ahold Of A Chord Chart By The Time I Went To This Song.

The Chords In This Song Are:

F B Em Am D G

F  B   Em
Dejalo
B               F   B  Em
si quieres continuar (hermano)
B  Am            D G
sal ilumina tu vida
 Em                 B
todo el cielo aplastandote
 B
dime que har
Добавлено: 11.11.2013
Другие материалы по этой песне:
  • Аккорды и текст

Страница создана 11.11.2013
http://primanota.ru/gorillaz/gorillaz-chords.htm
Привет, Гость.
Предлагаем пройти революционный курс по гитаре.
Подарок от PrimaNota.Ru, забирай!