PrimaNota.ru - самый крупный в мире бесплатный архив песенных текстов, аккордов, табулатур и нот


Good Charlotte - Keep Your Hands Off My Girl - текст песни, таба, бас-таба, видео

Регистрация Запомнить меня
Войти через:  Facebook Google Twitter Vk Yandex Mail.ru

Good Charlotte - Keep Your Hands Off My Girl - текст песни, таба, бас-таба, видео

Печатать
Просмотров: 500
Новый альбом группы 'Черный Кузнец' по культовому сериалу 'Сверхъестественное'!
                KEEP YOUR HANDS OFF MY GIRL - Good Charlotte
|-------------------------------------------------------------------------------------------------|
Tabbed by: anthonyd3ca
Email: anthonyd3ca@hotmail.com

I'm not great at tabbing songs but this sounds pretty much like the song. If you have 
questions or anything else you would like to tell me, you can email me at the email above.


Tuning: Standard

(Intro/verse)
e|---------------------------------------------------------------|
B|---------------------------------------------------------------|
G|---------------------------------------------------------------|
D|---------------------------------------------------------------|
A|-5---5-5---5-555--111111-----repeat through out whole verse----|
E|-3---3-3---3-333--9-9-9----------------------------------------|


(Pre-chorus)
e|-------------------------------------|
B|-------------------------------------|
G|-------------------------------------|
D|---8--- 7--------------6-------------|
A|-5-6--5-5--5-5---5-7-5-4-5----(x2)---|
E|-3----3----3-3---3-5-3---3-----------|


(Chorus)
e|----------------------------------------------|
B|----------------------------------------------|
G|----------------------------------------------|
D|----------------------------------------------|
A|-2222222244444444-6666-7777-6666-7777---(x3)--|
E|-0000000022222222-4444------4444--------------|

e|---------------------------------------|
B|---------------------------------------|
G|---------------------------------------|
D|---------------------------------------|
A|-2222222244444444-222222222-222222222--|
E|-0000000022222222-000000000-000000000--|


(Bridge)
e|-----------------------------------|
B|-----------------------------------|
G|-----------------------------------|
D|----4---7-88888888-----------------|
A|-66-2-6-5-66666666-99999996666666--|
E|-44---4------------77777774444444--|

e|---------------------------------------------------|
B|---------------------------------------------------|
G|---------------------------------------------------|
D|----4---7-88888888---------------------------------|
A|-66-2-6-5-66666666-999999911111111111111--(11's)---|
E|-44---4------------777777713131313131313--(13's)---|

e|-----------------------------------|
B|-----------------------------------|
G|-----------------------------------|
D|----4---7-88888888-----------------|
A|-66-2-6-5-66666666-99999996666666--|
E|-44---4------------77777774444444--|

e|---------------------------------------------------|
B|---------------------------------------------------|
G|---------------------------------------------------|
D|----4---7-88888888---------------------------------|
A|-66-2-6-5-66666666-999999911111111111111--(11's)---|
E|-44---4------------777777713131313131313--(13's)---|


(Outro/verse)
e|----------------------------------|
G|----------------------------------|
B|----------------------------------|
D|----------------------------------|
A|-5---5-5---5-555--111111---(x3)---|
E|-3---3-3---3-333--9-9-9-----------|


Order:
Intro/verse
Pre-chorus (x2)
Chorus
Verse
Pre-Chorus (x2)
Chorus
Bridge
Chorus
Outro/verse (x3)
Добавлено: 15.06.2012
Другие материалы по этой песне:

Страница создана 25.02.2012
http://primanota.ru/good-charlotte/keep-your-hands-off-my-girl-chords.htm
Привет, Гость.
Предлагаем пройти революционный курс по гитаре.
Подарок от PrimaNota.Ru, забирай!