PrimaNota.ru - самый крупный в мире бесплатный архив песенных текстов, аккордов, табулатур и нот


Good Charlotte - Let Me Go - аккорды и текст, таба, бас-таба, перевод, видео

Регистрация Запомнить меня
Войти через:  Facebook Google Twitter Vk Yandex Mail.ru

Good Charlotte - Let Me Go - аккорды и текст, таба, бас-таба, перевод, видео

Печатать
Просмотров: 289
Уроки эстрадного вокала в Санкт-Петербурге
Авторы: Joel Madden, Benji Madden
Авторы текста: Josh Ian
Let Me Go
Good Charlotte
		   -------------------------------------------------------------------------------
                            LET ME GO - Good Chrlotte
-------------------------------------------------------------------------------

Transcribed by: Pepsino24@aol.com

Intro:
     C   F   A   G
e|-----------------------
b|-----------------------
G|---5-------------------
D|---5---3---7---5-------
A|---3---3---7---5-------
E|-------1---5---3-------

Verse:
e|--------------------------------------------------------
b|---------------------------------------------4-4-4--1---
G|--------------------------------------------------------
D|--------------------------------------------------------
A|--------------------------------------------------------
E|--------------------------------------------------------
  Down in the streets outside of Washington D.C.....

Pre Chorus:
e|--------------------
b|--------------------
G|---5----------------
D|---5---3--xxx-7-5---
A|---3---3--xxx-7-5---
E|-------1--xxx-5-3---

Chorus:
e|-----------------|----------------------
b|-----------------|----------------------
G|---5-------------|----------------------
D|---5---3---7---5-|-----3-----5----------
A|---3---3---7---5-|-----3-----5----------
E|-------1---5---3-|-----1-----3----------
    Repeat 3x          "But I'm so young"

Bridge:
e|--------------------------------------------------------
b|--------------------------------------------------------
G|-------------5------------------------------------------
D|-------------5------------------------------------------
A|-------------3------------------------------------------
E|--------------------------------------------------------
   Na Na Na.....................  (Listen to cd for PM and
                                   timing on when to hit this chord)

The rest of the song repeats itself.  A very easy but fun song.  Enjoy!
Got any suggestions or new Good Charlotte tab send it my way!  pepsino24@aol.com     
Добавлено: 25.06.2013
Другие материалы по этой песне:

Страница создана 29.03.2012
http://primanota.ru/good-charlotte/let-me-go-chords.htm
Привет, Гость.
Предлагаем пройти революционный курс по гитаре.
Подарок от PrimaNota.Ru, забирай!