PrimaNota.ru - самый крупный в мире бесплатный архив песенных текстов, аккордов, табулатур и нот


Goo Goo Dolls - Bullet Proof - аккорды и текст, таба, бас-таба, видео

Регистрация Запомнить меня
Войти через:  Facebook Google Twitter Vk Yandex Mail.ru

Goo Goo Dolls - Bullet Proof - аккорды и текст, таба, бас-таба, видео

Печатать
Просмотров: 151
Авторы музыки: Johnny Rzeznik

Bullet Proof
Goo Goo Dolls
ARTIST: Goo Goo Dolls
TITLE:  Bullet Proof
ALBUM:  Dizzy Up The Girl
TABBED BY: Graeme Yeo  fungraeme@hotmail.com>


INTRO

e---2-2-3-3-----2-2-----3--2-3----x-x--x-x--x-x----x--x--
B---0-0-0-0-----0-0-----0--0-0----3-3--3-3--3-3----3--3--
G---0-0-0-0-----0-0-----0--0-0----0-0--0-0--0-0----0--0--
D---2-2-2-2-----2-2-----2--2-2----2-2--2-2--2-2----2--2--
A---2-2-2-2-----2-2-----2--2-2----3-3--3-3--3-3----3--3--
E---0-0-0-0-----0-0-----0--0-0----x-x--x-x--x-x----x--x--

Repeat sequence 3 more times




VERSE 1

Chords Used:
    Em Cadd2 Cadd2/F
e---0----3-----3---
B---0----0-----0---
G---0----0-----0---
D---2----2-----2---
A---2----3-----3---
E---0----x-----1---


Em                          Cadd2
       C you listen to your-self...
Em                          Cadd2
Em                          Cadd2
Cadd2/F                     Em

Em                             Cadd2
     I wanna bullet proof your soul...
Cadd2/F                        Em




PRE-CHORUS (Power Chords)

e--------------------------------------------
B--------------------------------------------
G---4-------5-------5------------------------
D---4-------5-------5-------2----0--0--2--2--
A---2-------3-------3-------2----0--0--2--2--
E---x-------x-------x------------------------
    What   are      we,    What-cha wanna be,

Repeat 3 more times




CHORUS

Chords Used:
    G    Bm   Em  Cadd9  D
e---3----2----0-----3----2--
B---0----3----0-----3----3--
G---0----4----0-----0----2--
D---0----4----2-----2----0--
A---2----2----2-----3-------
E---3----x----0-----x-------


G             Bm      Em      Cadd9
   Would you come my way
G             D       Cadd9
G             Bm      Em      Cadd9
G             D       Cadd9*

*Last Cadd9 played using the following rhythm:

e---x-x-x--x-x--x-x----x--x-x--
B---3-3-3--3-3--3-3----3--3-3--
G---0-0-0--0-0--0-0----0--0-0--
D---2-2-2--2-2--2-2----2--2-2--
A---3-3-3--3-3--3-3----3--3-3--
E---x-x-x--x-x--x-x----x--x-x--




REPEAT INTRO SEQUENCE TWICE


VERSE 2

Em                                Cadd2
      Yeah she wants to tear you down...
Cadd2/F                           Em

Em                                 Cadd2
       You^Òre a bullet through my soul...
Cadd2/F                            Em




PRE-CHORUS as before

CHORUS as before




GUITAR SOLO

To Chords:

Em   Cadd2   Em   Cadd2   Em   Cadd2   Cadd2/F   Cadd2* (hold)

Cadd2* is
e---0---
B---0---
G---0---
D---2---
A---3---
E---x---




CHORUS (ENDING)

G             Bm      Em      Cadd9
   Would you come my way...
G             D       Cadd9
G             Bm      Em      Cadd9
G             D       Cadd9
Em            D       Cadd9
Em            D       Cadd9
Em            D       Cadd9 (hold)



Note: I created this tab just from listening to the track so I don^Òt
know if this is actually how it is played, but it^Òs how I play it and
it seems pretty accurate to me!  The tabbing is all my own work.  If you
have any comments or suggestions please email me at fungraeme@hotmail.com
     
Добавлено: 22.10.2013
Другие материалы по этой песне:

Страница создана 25.02.2012
http://primanota.ru/goo-goo-dolls/bullet-proof-chords.htm
Привет, Гость.
Предлагаем пройти революционный курс по гитаре.
Подарок от PrimaNota.Ru, забирай!