PrimaNota.ru - самый крупный в мире бесплатный архив песенных текстов, аккордов, табулатур и нот


Goo Goo Dolls - Black Baloon - бас-таба, видео

Регистрация Запомнить меня
Войти через:  Facebook Google Twitter Vk Yandex Mail.ru

Goo Goo Dolls - Black Baloon - бас-таба, видео

Печатать
Просмотров: 148
In this song the bass used is a 5 string

BLACK BALOON
---------------------------------------------------------|
---------------------------------------------------------|
---------------------------------------------------------|
----------------------------------2-2-2-2-2-2-2----------|
------------------4-4-4-4-4-4-4-4------------------------|
LINK

---------------------------------|
---------------------------------|
-4-4-4--4-4-4-4------------------|
----------------2-2-2--2-2-2-2---| (X2)
---------------------------------|

VERSE 2

---------------------------|
---------------------------|
-4-4-4--4-4----------------|
------------2-2-2--2-2-----| (X3)
---------------------------|

-------------------------------------------|
-------3-4-6-6-6-6-6-6-6-6-4-4-4-4-4-4-4-4-|
-1-3-4-------------------------------------|
-------------------------------------------|
-------------------------------------------|

CHORUS

-----------------------------------------|
-----------------------------------------|
-------------------------4-4-4-4---------|
-6-6-6---4-4-4-4-2-2-2-------------------| (X3)
-----------------------------------------|

-----------------------------------------|
-----------------------------------------|
-----------------------------------------|
-2-2-2---4-4-----------------------------|
-----------------------------------------|

VERSE 3
(SAME AS VERSE 2)

CHORUS

SOLO

-------------------------------------------------|
-------------------------------------------------|
-------------------------------------------------|
-1-1-1-1-1-1-1-1-2-2-2-2-2-2-2-2-6-6-6-6-6-6-6-6-|
-------------------------------------------------|

-------------------------------------------------|
-------------------------------------------------|
-------------------------------------------------|
-4-4-4-4-4-4-4-4-1-1-1-1-1-1-1-1-2-2-2-2-2-2-2-2-|
-------------------------------------------------|

-----------------------------------------------------|
-----------------------------------------------------|
-----------------------------------------------------|
-6-6-6---4-4-4-4-2-2-2-2-2-2-2-2-2---2---2---1--0//2-|
-----------------------------------------------------|

BRIDGE
-----------------------------------------------------------------|
-----------------------------------------------------------------|
-----------------------------------------------------------------|
-1-1-1-1-1-1-1-1-2-2-2-2-2-2-2-2-2-4-4-4-4-4-4-4-4-4-4-4-4-4-4-4-|
-----------------------------------------------------------------|

CHORUS
-----------------------------------|
-----------------------------------|
---------------------------4-4-4-4-| (X3)
-6-6-6---4-4-4-4---2-2-2-----------|
-----------------------------------|

--------------------------------------------------------------------|
--------------------------------------------------------------------|
----------------------------------------------------------------4~--|
-2-2-2-4-4-1-1-1-1-1-1-1-1------------------------2~----------------|
------------------------------------4-------------------------------|
Добавлено: 16.07.2012
Другие материалы по этой песне:
  • Аккорды и текст

Страница создана 16.07.2012
http://primanota.ru/goo-goo-dolls/black-baloon-chords.htm
Привет, Гость.
Предлагаем пройти революционный курс по гитаре.
Подарок от PrimaNota.Ru, забирай!