PrimaNota.ru - самый крупный в мире бесплатный архив песенных текстов, аккордов, табулатур и нот


Goldfinger - Spokerman - бас-таба, видео

Регистрация Запомнить меня
Войти через:  Facebook Google Twitter Vk Yandex Mail.ru

Goldfinger - Spokerman - бас-таба, видео

Печатать
Просмотров: 100
Intro:
G|---------|
D|---------|
A|2-2-2-2-2|
E|-0-0-0-0-|

Verse:
G|------------------------------|
D|------------------------------|
A|22222222--------44444444-----2|     x2
E|--------22222222--------00-22-|

Pre Chorus:
G|------|
D|------|
A|------|
E|-0-0-0|

Chorus:
G|------------------------------------|
D|------------------------------------|
A|------------------5555-4444-22222222|
E|33333333-55555555-------------------|

G|----------------------------------|
D|----------------------------------|
A|------------------55555555--------|
E|33333333-55555555----------5555555|

Pre Verse:
G|---------|
D|---------|
A|2-2-2-2-2|
E|-0-0-0-0-|

verse:
G|------------------------------|
D|------------------------------|
A|22222222--------44444444-----2|     x2
E|--------22222222--------00-22-|

Pre Chorus:
G|------|
D|------|
A|------|
E|-0-0-0|

Chorus:
G|------------------------------------|
D|------------------------------------|
A|------------------5555-4444-22222222|
E|33333333-55555555-------------------|

G|----------------------------------|
D|----------------------------------|
A|------------------55555555--------|
E|33333333-55555555----------5555555|

Bridge:
G|-------------------------------------------------|
D|-------------------------------------------------|
A|2-2-2-2-2-2-2-2---2-2-2-2-222-2-2-2-2-2-22222222-|
E|-0-0-0-0-0-0-0-000-0-0-0-0---0-0-0-0-0----------0|

Chorus:
G|------------------------------------|
D|------------------------------------|
A|------------------5555-4444-22222222|
E|33333333-55555555-------------------|

G|----------------------------------|
D|----------------------------------|
A|------------------55555555--------|
E|33333333-55555555----------5555555|

G|------------------------------------|
D|------------------------------------|
A|------------------5555-4444-22222222|
E|33333333-55555555-------------------|

outro:
G|--------------------|
D|--------------------|
A|2-2-2-2-2---2-2-2-2-|
E|-0-0-0-0-000-0-0-0-0|

The no.s are pretty acurate 1st tab posotive its 100% right. 
                         
                           Enjoy!
Добавлено: 26.05.2012
Другие материалы по этой песне:
  • Аккорды и текст

Страница создана 26.05.2012
http://primanota.ru/goldfinger/spokerman-chords.htm
Привет, Гость.
Предлагаем пройти революционный курс по гитаре.
Подарок от PrimaNota.Ru, забирай!