PrimaNota.ru - самый крупный в мире бесплатный архив песенных текстов, аккордов, табулатур и нот


Goldfinger - The Innocent - аккорды и текст, таба, бас-таба, видео

Регистрация Запомнить меня
Войти через:  Facebook Google Twitter Vk Yandex Mail.ru

Goldfinger - The Innocent - аккорды и текст, таба, бас-таба, видео

Печатать
Просмотров: 221
The Innocent
Goldfinger
--------------------------------------------------------------------------------
		The Innocent - Goldfinger, Good Charlotte, Mest
--------------------------------------------------------------------------------

Tabbed By: Kevin Buzby
E-Mail: kjlee@bu.edu

Tuning: EADGBE

Song Notes:
Listen for palm mutes and pick scrapes.  They are quite evident.  If you don't
know how to do a pick scrape correctly you just take your pick and go from the
bridge (tail piece) and scrape your pick, holding it perpendicular to the
strings, to the headstock.  Timing is also easy so you should pick right up on
it. Just listen. Easy enough. :)
 
Chord Key:
    D      A      G      F#     B
E|---------------------------------|
B|---------------------------------|
G|--7------------------------------|
D|--7------7------5------4------9--|
A|--5------7------5------4------9--|
E|---------5------3------2------7--|

Intro: (Drums + Piano)

Verse 1:
D                A              B        A   G
The start of Armageddon, It was just another day
D                A              G (pick scrape)    A
We all saw the news nothing to say
D                   A            B         A    G
So many friends are missing, and family members gone
D                 A                 G
So we all pray to God "help them be strong"
D                  A       B           A    G 
And now we stand together, remembering that day
D                      A            G
The lives we live will never be the same

Chorus 1:
D                      A
And we don't know why
B                F#
The innocent die
G                    A             B
Will this world ever find a way to change?
D                      A
And we don't know why
B                          F#
But we know its not right
G                 A           B
Don't know why so many had to die
G                    A           D (pick scrape)
We don't know why so many had to die

Verse 2:
D                 A                B           A     G
Hate is turned to others for their religion or their skin
D                       A          G
But hate can't stop the problem it began
D           A      B          A G
Everyone is angry, people are afraid
D                     A                 G
And no one knows what decisions will be made

Chorus 2:
D                  A
We don't know why
B                 F#
The innocent die
G                    A             B
Will this world ever find a way to change?
D                     A
And we don't know why
B                          F#
But we know it's not right
G                    A           B
We don't know why so many had to die
G                 A           D (pick scrape)
Don't know why so many had to die

(solo)
  play over verse chords x2                 
E|-------------------------------------------------------------------|
B|-------------------------------------------------------------------|
G|-------------------------------------------------------------------|
D|--------------------------------------------------4----6----7----9-|
A|--5--5-5-5\7-5-4~-4/2-2-2-2-0-2~-4-5-0---4-4-5-22-2-44-4-55-5-77-7-|
E|---------------------------------------2---------------------------|
						 xx   xx   xx   xx	

E|-------------------------------------------------------------------------|
B|-------------------------------------------------------------------------|
G|-------------------------------------------------------------------------|
D|--0-0-4p0-5p0-4p0-0-0-4p0-5p0-4p0-0-0-4p0-5p0-7p0-9p0-7p0-5p0-4p0-0-0-4p0|
A|-------------------------------------------------------------------------|
E|-------------------------------------------------------------------------|

                            Harm.
E|-------------------------|------------------------------------|
B|-------------------------|-----------------------------|
G|-------------------------|-------------------------|
D|-5p0-4p0-0-0-4p0-5p0-4p0-|--------------------------------|
A|-------------------------|------------------------------------|
E|-------------------------|------------------------------------|

Chorus 3:
D                  A
We don't know why (don't know why)
B                  F#
The innocent die (don't know why)
G                    A             B
Will this world ever find a way to change
D                       A
And we don't know why (don't know why)
B                          F#
But we know its not right (don't know why)
G              A           B
Will any of us ever be the same
G                A           D
Will any of this ever be the same

Outro: (Piano + Drums)
I hear the guitar strumming barred forms of D, A, Bm, G in the background


| /  slide up
| \  slide down
| B  hammer-on
| p  pull-off
| ~  vibrato
|  harmonic
| x  palm mute note

===============================================================================
Добавлено: 27.07.2012
Другие материалы по этой песне:
  • Аккорды и текст

Страница создана 11.03.2012
http://primanota.ru/goldfinger/the-innocent-chords.htm
Привет, Гость.
Предлагаем пройти революционный курс по гитаре.
Подарок от PrimaNota.Ru, забирай!