PrimaNota.ru - самый крупный в мире бесплатный архив песенных текстов, аккордов, табулатур и нот


Gogol Bordello - Malandrino - аккорды и текст, видео

Регистрация Запомнить меня
Войти через:  Facebook Google Twitter Vk Yandex Mail.ru

Gogol Bordello - Malandrino - аккорды и текст, видео

Печатать
Просмотров: 349
Malandrino
Gogol Bordello
Intro: E

E|-----0-2-0-2-0-2-0------0-2-0-2-0-2-0-|
B|-----0-0-0-0-0-0-0------0-0-0-0-0-0-0-|
G|---1------------------1---------------|
D|--------------------------------------|
A|--------------------------------------|
E|-0------------------0-----------------|

(you play this wile Eugene starts singing):

E|-----0-/5-4-2h4p2-|
B|-----0------------|
G|---1--------------|
D|------------------|
A|------------------|
E|-0----------------|


                        E
My birth I can hardly remember 
                        C#m
But I remember from the start 
                            A
My midwives looking at each other 
B7                                   E
"Wow, this boy is born with singing heart" 

E|-0-2-0-/5-4-2h4p2-|
B|-0-0-0------------|
G|------------------|
D|------------------|
A|------------------|
E|------------------| 

                               E
All doors for him will now fly open 
                      C#m
For everybody loves a nut 
                                 A
It's true once they threw me in trenches 
B7                           E
Front line amigos sure love that 

E|-0-4-5-6-7-|

Chorus:
   E                       B
Malandro, Malandro, Malandrino 
     A                        E
Truffaldo, Truffaldo, Truffaldino 
   E                       B
Malandro, Malandro, Malandrino 
A      B                E
I was born with singing heart 

 
e|-0-2-0-/5-4-2h4p2-|
B|-0-0-0------------|
G|------------------|
D|------------------|
A|------------------|
E|------------------| 
               
                             E
Those midwives were like politicians 
                            C#m
To bickering they were so proud 
                             A
One said "life is beautiful gift, boy" 
B7                          E
Other one said "government loan" 
 
e|-0-2-0-/5-4-2h4p2-|
B|-0-0-0------------|
G|------------------|
D|------------------|
A|------------------| 
E|------------------|
 
                                 E
I still don't know which one is right girl 
                             C#m
And you know I don't really care 
                          A
I got to keep my heart a-singing 
B7                          E
And for that anything I'll dare 
             E         B7            E
Oh, for that anything, anything I'll dare 

E|-0-4-5-6-7-|

Chorus 

E
[ukranian] 
   A     B   E
and make-up sex 

Chorus

A     B                 E
I was born with singing heart

Ending: (x3)

E     B
Hea-a-art 

A B E
Добавлено: 28.11.2013
Другие материалы по этой песне:
  • Аккорды и текст

Страница создана 28.11.2013
http://primanota.ru/gogol-bordello/malandrino-chords.htm
Привет, Гость.
Предлагаем пройти революционный курс по гитаре.
Подарок от PrimaNota.Ru, забирай!