PrimaNota.ru - самый крупный в мире бесплатный архив песенных текстов, аккордов, табулатур и нот


Gogol Bordello - I Just Realized - таба, видео

Регистрация Запомнить меня
Войти через:  Facebook Google Twitter Vk Yandex Mail.ru

Gogol Bordello - I Just Realized - таба, видео

Печатать
Просмотров: 585
Don't play it as a riff, play it as an arpeggio with the position of the chords I wrote. 
(If you watch a video online, Eugene never plays it the exact same way, so as you play 
over those chords it sounds fine).
The notes I writed together without space is because he doen't pick them, he just strums 
the chord.



          Am7           B7             E7            Am7
E|-----0-------00-|-----------|------7---7/8----|-/5-5---00-|
B|---------3/5-55-|---0-0---0-|--------------00-|-/5-5-1-11-|
G|---0---0--------|---2-2---2-|----7---7-----77-|-----------|
D|----------------|-----------|--------------66-|-----------|
A|-0--------------|-2---------|-/7-----------77-|-----------|
E|----------------|-------2---|-----------------|-----------|

          Am7           B7             E7            Am7
E|-----0-------00-|-----------|------7---7/8----|---5-----|
B|---------3/5-55-|---0-0---0-|--------------00-|-----5---|
G|---0---0--------|---2-2---2-|----7---7-----77-|-------5-|
D|----------------|-----------|--------------66-|---------|
A|-0--------------|-2---------|-/7-----------77-|-7-------|
E|----------------|-------2---|-----------------|---------|


  Am                     B7
I just realized that I'm dying to see you
    E                   Am
And hear you all over again and again
Dm           G
When did it started?
    C          E
On which exact moment?
Dm                     E
Oh, I don't know and I hope it will end
Am                 Dm
Maybe tomorrow but probably never
        E                    Am
In this world of obsession I helplessly fall
Dm          G       C       Am
Feeling disguising, so polarizing
Dm
Where is the exit?
E
Of course there is none...

Chorus:
Am           Dm
When did it started
E              Am
On which exact moment
        Dm         Am
In this world of obsession
   E         Am
I helplessly fall
Am           Dm        E       Am
Feeling disguising and so polarizing
Dm              Am
And where's the exit?
E                  Am
Of course there is none...


Break over Am Dm E Am Dm Am E Am

Am             B7
When a body is burning with fever
E             Am
Of the voodoo force
Dm       G          C     Am
What is it that's really burning?
Dm               E
Parts of you if course!
Am                Dm
Is it because I'm russian?
E                    Am
Is it because you're not?
Dm     G   C    Am      Dm       E
Oppa snova puta madre vsyo naoborot


Break

Chorus

Break

Accordion solo over Am Dm E Am Dm Am E Am

First strophe again.


I'm not sure if In the Dm G C Am it's actually Am or Am7, sorry.
Добавлено: 25.10.2013
Другие материалы по этой песне:
  • Аккорды и текст

Страница создана 25.10.2013
http://primanota.ru/gogol-bordello/i-just-realized-chords.htm
Привет, Гость.
Предлагаем пройти революционный курс по гитаре.
Подарок от PrimaNota.Ru, забирай!