PrimaNota.ru - самый крупный в мире бесплатный архив песенных текстов, аккордов, табулатур и нот


Gogol Bordello - Dig Deep Enough We Are The Youth - таба, видео

Регистрация Запомнить меня
Войти через:  Facebook Google Twitter Vk Yandex Mail.ru

Gogol Bordello - Dig Deep Enough We Are The Youth - таба, видео

Печатать
Просмотров: 467
(x) = hold note. You can pick it really fast to emulate the violin. 

             Bm                     D                     Em                    A   
E|-15-(14)--------|-19-(17)--19-17-15-14-|-12-------14-12----12-|------------12-|
B|----------14-15-|----------------------|----(15)--------15----|-15-(14)--15---|
G|----------------|----------------------|----------------------|---------------|
D|----------------|----------------------|----------------------|---------------|
A|----------------|----------------------|----------------------|---------------|
E|----------------|----------------------|----------------------|---------------|

            Bm                     D                     Em                    A   
E|-15-(14)--------|-19-(17)--19-17-15-14-|-12-------15-14-12-14-|-12-------------|
B|----------14-15-|----------------------|----(15)--------------|----15-14-12----|
G|----------------|----------------------|----------------------|-------------14-|
D|----------------|----------------------|----------------------|----------------|
A|----------------|----------------------|----------------------|----------------|
E|----------------|----------------------|----------------------|----------------|

Bm                                     D
who would know better then us pleasure seekers 
Em                                   A
than to meet inside of the shamanic speakers 
      Bm
where past is a memory 
            D
future is illusion 
     Em                                 A
and only the power of now beats the confusion. 

            Bm
we who seek long enough, 
     D
dig deep enough, 
        Em
stay strong enough 
    A
the way 
            Bm
we who seek long enough, 
    D
dig deep enough, 
                  Em
find the diamonds in the rough 
     Bm
One day 

INTRO RIFF

BREAK: Bm - b|-5-4-3-2h3-| - Bm/Bsus4/Bm

(Same with Bm D Em A) 
who would know better then us freedom fighters? 
than to reach within to old ignitors 

Still the same, this is what violin plays in the background:

                    Bm                         D
E|-------------------------|-------------------------|
B|-5-5-5-------------------|-10-10-10-8-8-8-7-7-7----|
G|-------7-7-7-6-6-6-7-7-7-|---------------------(7)-|
D|-------------------------|-------------------------|
A|-------------------------|-------------------------|
E|-------------------------|-------------------------|
 
                  Em                 A
E|-----------------------|---------|
B|-8-8-8-7-7-7-5-5-5-----|---------|
G|-------------------(7)-|-7-6-----|
D|-----------------------|-----9-7-|
A|-----------------------|---------|
E|-----------------------|---------|

and all of the feelings you could never explain 
are coming to rescue from beyond your brain

we who seek long enough, 
dig deep enough, 
stay strong enough 
the way 

we who seek long enough, 
dig deep enough, 
find the diamonds in the rough 
One day 

INTRO RIFF

(Same with Bm D Em A) 
We are the youth, without youth problems. 
We are the youth, without youth problems. 
and only the ones who get to reach stratosphere 
get to see sun when it's raining down here

Violin Riff

Ending:

 
            Bm                     D                     Em                    A   
E|-15-(14)--------|-19-(17)--19-17-15-14-|-12-------14-12----12-|------------12-|
B|----------14-15-|----------------------|----(15)--------15----|-15-(14)--15---|
G|----------------|----------------------|----------------------|---------------|
D|----------------|----------------------|----------------------|---------------|
A|----------------|----------------------|----------------------|---------------|
E|----------------|----------------------|----------------------|---------------|

            Bm                     D                     Em                    A             Bm
E|-15-(14)--------|-19-(17)--19-17-15-14-|-12-------15-14-12-14-|-12---------------|------|
B|----------14-15-|----------------------|----(15)--------------|----15-14-12------|------|
G|----------------|----------------------|----------------------|-------------14-15|-(16)-|
D|----------------|----------------------|----------------------|------------------|------|
A|----------------|----------------------|----------------------|------------------|------|
E|----------------|----------------------|----------------------|------------------|------|
Добавлено: 21.07.2013
Другие материалы по этой песне:
  • Аккорды и текст

Страница создана 21.07.2013
http://primanota.ru/gogol-bordello/dig-deep-enough-we-are-the-youth-chords.htm
Привет, Гость.
Предлагаем пройти революционный курс по гитаре.
Подарок от PrimaNota.Ru, забирай!