PrimaNota.ru - самый крупный в мире бесплатный архив песенных текстов, аккордов, табулатур и нот


Godspeed You Black Emperor - East Hastings - таба, бас-таба, видео

Регистрация Запомнить меня
Войти через:  Facebook Google Twitter Vk Yandex Mail.ru

Godspeed You Black Emperor - East Hastings - таба, бас-таба, видео

Печатать
Просмотров: 382
-----------------------------------------------------------------------------
                             East Hastings - Godspeed You Black Emperor!
-----------------------------------------------------------------------------
Tabbed by: Chris Vinkler
Email: thecure8989@yahoo.com
I thought this site hardly had any godspeed songs, so i decided to do my own

Tuning:Standard
 The timings not great, but its easy to figure out on your own
e|--------------------------------------------------------------------------|
B|--------------------------------------------------------------------------|
G|---------6--6-6-5-5---------------6-6-6\2-2-------------------------------|
D|--------------------------------------------------------------------------|
A|--------------------------------------------------------------------------|
E|---6-----------------------6----------------------------------------------|
           Repeat
e|--------------------------------------------------------------------------|
B|--------------------------------------------------------------------------|
G|---------6-6-6/8-8-----------6-6-6--3-3-----------------------------------|
D|--------------------------------------------------------------------------|
A|--------------------------------------------------------------------------|
E|---6-------------------6--------------------------------------------------|

e|--------------------------------------------------------------------------|
B|--------6-6-6-7-4---------4-4-4-6-2---------2-2-2-4-1---------------------|
G|--------------------------------------------------------------------------|
D|--------------------------------------------------------------------------|
A|--------------------------------------------------------------------------|
E|----6----------------6-----------------6----------------------------------|
            Repeat
e|--------------------|
B|---------1-1-1^(1)--|
G|--------------------|
D|--------------------|
A|--------------------|
E|-----6--------------|
      After playing these riffs several times, do this:
e|--------------------------------------------------------------------------|
B|------6-6-6-7p6-6-7p6-7p6-7p6/4-----4-4-4-6p4-4-6p4-4-6p4-----------------|
G|--------------------------------------------------------------------------|
D|--------------------------------------------------------------------------|
A|--------------------------------------------------------------------------|
E|--------------------------------------------------------------------------|

e|--------------------------------------------------------------------------|
B|------6p4-6p4/2-2-2-2-4p2-2-4p2-2-4p2-4p2-4p2-1-1-1-1-3p1-1-3p1-----------|
G|--------------------------------------------------------------------------|
D|--------------------------------------------------------------------------|
A|--------------------------------------------------------------------------|
E|--------------------------------------------------------------------------|

e|------13p1-3p1-3p1--------|
B|--------------------3-----|
G|--------------------------|
D|--------------------------|
A|--------------------------|
E|--------------------------|
   The end of the first part, and onto the second, which starts with the "da da da da" singing
e|--------------------------------------------------------------------------|
B|--------------------------------------------------------------------------|
G|--------------------------------------------------------------------------|
D|--------------------------------------------------------------------------|
A|-------8-------4----------------------------------------------------------|
E|-----6-------2------------------------------------------------------------|

e|----------13-13-11-11---------11-11-9-9--------9-9-8-8--------------------|
B|--------------------------------------------------------------------------|
G|--------------------------------------------------------------------------|
D|--------------------------------------------------------------------------|
A|------8--------------------4---------------8------------------------------|
E|----6--------------------2---------------6--------------------------------|

e|----------8-8-6-6-----------6-6-8-8----------8-8-9-9----------------------|
B|--------------------------------------------------------------------------|
G|--------------------------------------------------------------------------|
D|--------------------------------------------------------------------------|
A|------4----------------8----------------4---------------------------------|
E|----2----------------6----------------2-----------------------------------|

e|---------9-9-11-11----------11-11-13-13---------|
B|------------------------------------------------|
G|------------------------------------------------|
D|------------------------------------------------|
A|-----8------------------4-----------------------|
E|---6------------------2-------------------------|

e|----------13-13-11-11------11-11-9-9-----9-9-8-8----8-8-6-6---------------|
B|--------------------------------------------------------------------------|
G|--------------------------------------------------------------------------|
D|---8-8------------------4-------------8-----------4-----------------------|
A|---8-8------------------4-------------8-----------4-----------------------|
E|---6-6------------------2-------------6-----------2-----------------------|

Now the song gets faster
e|----13\11--11\9--9\8--8\6--6-----6h8-6--6h8-6--1---2--1h2-1---------------|
B|--------------------------------------------------------------------------|
G|--------------------------------------------------------------------------|
D|--------------------------------------------------------------------------|
A|--------------------------------------------------------------------------|
E|--------------------------------------------------------------------------|

e|--6-6-8-8--6-6-8-8--6-6-4-4----------|
B|-------------------------------------|
G|-------------------------------------|
D|-------------------------------------|
A|-------------------------------------|
E|-------------------------------------|
Repeat that last riff a few times, the next one is where it gets bent alot and feedback comes afterwards

e|-----6^--6^^^--6^^^^---6^-(6)----|
B|---------------------------------|
G|---------------------------------|
D|---------------------------------|
A|---------------------------------|
E|---------------------------------|

Now here the cello and violin playing, but it works with the guitar, play it fast too.
e|--------------------------------------------------------------------------|
B|--------------------------------------------------------------------------|
G|--------------------------------------------------------------------------|
D|--------------------------------------------------------------------------|
A|---8-8-9-9-8-8-9-9-8-8-6-6-8-8-4-4-6-6-4-4-6-6-3-3-4-4-3-3-1-1------------|
E|--------------------------------------------------------------------------|

Well, thats it, it took a while, but this site needed some godspeed...enjoy

| /  slide up
| \  slide down
| h  hammer-on
| p  pull-off
| ~  vibrato
| +  harmonic
| x  Mute note
===============================================================================
Добавлено: 23.04.2012
Другие материалы по этой песне:
  • Аккорды и текст

Страница создана 23.04.2012
http://primanota.ru/godspeed-you-black-emperor/east-hastings-chords.htm
Привет, Гость.
Предлагаем пройти революционный курс по гитаре.
Подарок от PrimaNota.Ru, забирай!