PrimaNota.ru - самый крупный в мире бесплатный архив песенных текстов, аккордов, табулатур и нот


Godsmack - Saints & Sinners - текст песни, таба, бас-таба, видео

Регистрация Запомнить меня
Войти через:  Facebook Google Twitter Vk Yandex Mail.ru

Godsmack - Saints & Sinners - текст песни, таба, бас-таба, видео

Печатать
Просмотров: 1071
Godsmack: Saints And Sinners

Transcribed by: mysticguitar77 (disturbedfreak0520@yahoo.com)

Date last modified: May 14, 2010

**UPDATE**May 14, 2010: Solo added

PLEASE DO NOT COPY THIS TAB TO ANOTHER SITE
WITHOUT AUTHORS' PERMISSION. THANK YOU.

Tuning: Drop D (D,A,D,G,B,E)

Riff 1 (bass intro, guitar fades in)
E|------------------|
B|------------------|
G|------------------|
D|-0--(0)--(0)--(0)-|
A|-0--(0)--(0)--(0)-|
D|-0--(0)--(0)--(0)-|

Riff 1a (guitar kicks in) "Yeah!"
E|---------------------------------|
B|---------------------------------|
G|---------------------------------|
D|-12-0-0--0-12-0-0--0-13-13-13-13-|
A|-12-0-0--0-12-0-0--0-13-13-13-13-|
D|-12-0-0--0-12-0-0--0-13-13-13-13-|
   *  * *  * *  * *  *

Riff 2
E|-----------------------------------------------------------------|
B|-----------------------------------------------------------------|
G|-----------------------------------------------------------------|
D|-12-0-0--0-12-0-0--0-15-15-15-15-12-0-0--0-12-0-0--0-13-13-13-13-|
A|-12-0-0--0-12-0-0--0-15-15-15-15-12-0-0--0-12-0-0--0-13-13-13-13-|
D|-12-0-0--0-12-0-0--0-15-15-15-15-12-0-0--0-12-0-0--0-13-13-13-13-|

E|----------------------------------------------------------|
B|----------------------------------------------------------|
G|----------------------------------------------------------|
D|-12-0-0--0-12-0-0--0-15-15-15-15-8--8-8-8-7--7-7-7-3--3-3-|
A|-12-0-0--0-12-0-0--0-15-15-15-15-8--8-8-8-7--7-7-7-3--3-3-|
D|-12-0-0--0-12-0-0--0-15-15-15-15-8--8-8-8-7--7-7-7-3--3-3-|

Repeat Riff 2 through first 3 measures
Play Riff 1a

Riff 3   "Home from a seed of hope I'll never know!"
E|-----------------------------------------------------------------|
B|-----------------------------------------------------------------|
G|-----------------------------------------------------------------|
D|-12-0--0--0--0--0--0-15-15-15-15-12-0--0--0--0--0--0-13-13-13-13-|
A|-12-0--0--0--0--0--0-15-15-15-15-12-0--0--0--0--0--0-13-13-13-13-|
D|-12-0--0--0--0--0--0-15-15-15-15-12-0--0--0--0--0--0-13-13-13-13-|

Repeat Riff 3 X3

   "...of a home so cold, so cold..."
E|-----------------------------------------------------------------|
B|-----------------------------------------------------------------|
G|-----------------------------------------------------------------|
D|-12-0--0--0--0--0--0-15-15-15-15-12-0-0--0-12-0-0--0-13-13-13-13-|
A|-12-0--0--0--0--0--0-15-15-15-15-12-0-0--0-12-0-0--0-13-13-13-13-|
D|-12-0--0--0--0--0--0-15-15-15-15-12-0-0--0-12-0-0--0-13-13-13-13-|
                                   *  * *  * *  * *  *

Riff 4   "If I only knew what I know!"
E|--------------------------------------------------------------|
B|--------------------------------------------------------------|
G|-10--10-10-10-10--10-10-10-10--10-10-9--9-9-9-9--9-9-9-9--9-9-|
D|-8---8--8--8--8---8--8--8--8---8--8--7--7-7-7-7--7-7-7-7--7-7-|
A|-8---8--8--8--8---8--8--8--8---8--8--7--7-7-7-7--7-7-7-7--7-7-|
D|-8---8--8--8--8---8--8--8--8---8--8--7--7-7-7-7--7-7-7-7--7-7-|

Riff 5a (Rhythm guitar) "I shake my fist up to the sky!"
E|---------------------------------------------------|
B|-3--3-3-3-3--3-3-3-3--3-3--------------------------|
G|-2--2-2-2-2--2-2-2-2--2-2-5--5-5-5-5--5-5-5-5--5-5-|
D|-0--0-0-0-0--0-0-0-0--0-0-3--3-3-3-3--3-3-3-3--3-3-|
A|-0--0-0-0-0--0-0-0-0--0-0-3--3-3-3-3--3-3-3-3--3-3-|
D|-0--0-0-0-0--0-0-0-0--0-0-3--3-3-3-3--3-3-3-3--3-3-|

E|--------------------------------------------------------------|
B|--------------------------------------------------------------|
G|-10--10-10-10-10--10-10-10-10--10-10-9--9-9-9-9--9-9-9-9--9-9-|
D|-8---8--8--8--8---8--8--8--8---8--8--7--7-7-7-7--7-7-7-7--7-7-|
A|-8---8--8--8--8---8--8--8--8---8--8--7--7-7-7-7--7-7-7-7--7-7-|
D|-8---8--8--8--8---8--8--8--8---8--8--7--7-7-7-7--7-7-7-7--7-7-|

Riff 5b (Rhythm guitar) "I'm one part saint and two parts sinner!"
E|--------------------------------------------------------------|
B|-3--3-3-3-3--3-3-3-3--3-3-------------------------------------|
G|-2--2-2-2-2--2-2-2-2--2-2-12--12-12-12-12--12-12-12-12--12-12-|
D|-0--0-0-0-0--0-0-0-0--0-0-10--10-10-10-10--10-10-10-10--10-10-|
A|-0--0-0-0-0--0-0-0-0--0-0-10--10-10-10-10--10-10-10-10--10-10-|
D|-0--0-0-0-0--0-0-0-0--0-0-10--10-10-10-10--10-10-10-10--10-10-|

E|-------------------------------------------------------------------|
B|-------------------------------------------------------------------|
G|-10--10-10-10-10--10-10-10-10--10-10-12--12-12-12-12--12-12-12-12\-|
D|-8---8--8--8--8---8--8--8--8---8--8--10--10-10-10-10--10-10-10-10\-|
A|-8---8--8--8--8---8--8--8--8---8--8--10--10-10-10-10--10-10-10-10\-|
D|-8---8--8--8--8---8--8--8--8---8--8--10--10-10-10-10--10-10-10-10\-|

Riff 5b (Lead guitar w/ wah)
E|---------------------------------------------------|
B|---------------------------------------------------|
G|-7--7-7-7-7--7-7-7-7--7-7-5--5-5-5-5--5-5-5-5--5-5-|
D|-x--x-x-x-x--x-x-x-x--x-x-x--x-x-x-x--x-x-x-x--x-x-|
A|-5--5-5-5-5--5-5-5-5--5-5-3--3-3-3-3--3-3-3-3--3-3-|
D|---------------------------------------------------|

E|----------------------------------------------------------|
B|----------------------------------------------------------|
G|-10--10-10-10-10--10-10-10-10--10-10-9--9-9-9-9--9-9-9-9\-|
D|-x---x--x--x--x---x--x--x--x---x--x--x--x-x-x-x--x-x-x-x--|
A|-8---8--8--8--8---8--8--8--8---8--8--7--7-7-7-7--7-7-7-7\-|
D|----------------------------------------------------------|

Play Riff 2   "...and the last part is still on the line!"
Play Riff 1a
Play Riff 3   "We pray even though we know nobody cares!"
Play Riff 4   "If I only knew what I know!"
Play Riff 5a  "I shake my fist up to the sky!"
Play Riff 5b  "I'm one part saint and two parts sinner!"
Play Riff 5a  "I shake my fist up to the sky!"
Play Riff 5b  "I'm one part saint and two parts sinner!"

Riff 6   "...and the last part is still on the line!"
E|------------------------------------|
B|------------------------------------|
G|------------------------------------|
D|-12-0-13-0-10-13-12-0-15-14-0-15-13-|
A|-12-0-13-0-10-13-12-0-13-12-0-15-13-|
D|-12-0-13-0-10-13-12-0-------0-15-13-|

Repeat Riff 6 X4

Riff 6 (Lead guitar w/ wah)
E|-----------------------------------------------------|
B|-----------------------------------------------------|
G|-7-7-7-7-7-7-7-7-7-7-7-7-8-8-8-5-5-5-7-7-7-7-7-7-7-7-|
D|-x-x-x-x-x-x-x-x-x-x-x-x-x-x-x-x-x-x-x-x-x-x-x-x-x-x-|
A|-5-5-5-5-5-5-5-5-5-5-5-5-6-6-6-3-3-3-5-5-5-5-5-5-5-5-|
D|-----------------------------------------------------|

Riff 7
E|--------------------------------------------------------------------|
B|--------------------------------------------------------------------|
G|------------------------------------------------------15-14---------|
D|------------------------------------------------------x--x--0-15-13-|
A|------------------------------------------------------13-12-0-15-13-|
D|-12-0-13-0-10-13-12-0-13-0-10-13-12-0-13-0-10-13-12-0-------0-15-13-|
   *  * *  * *  *  *  * *  * *  *  *  * *  * *  *  *  *

Play Riff 7 X2   "...what's inside of me!"
Play Riff 6 X2 (solo)

Solo
E|--------------------------------------------------------------------|
B|-13b15-(15)-10h13p10h13p10h13p10h13p10h13p10h13p10-13b--------------|
G|----------------------------------------------------------/10-------|
D|--------------------------------------------------------------12-10-|
A|--------------------------------------------------------------------|
D|--------------------------------------------------------------------|

E|-----------------------------------------|
B|-----------------------------------------|
G|-----10-12-10--------------10------------|
D|-/12----------12--12-10-12----12--10-12\-|
A|-----------------------------------------|
D|-----------------------------------------|

E|--------------------------------------------|
B|-----------------------13b-13b-13p10-13b15~-|
G|-12b14----12p10-12b-------------------------|
D|--------------------------------------------|
A|--------------------------------------------|
D|--------------------------------------------|

Riff 8 (end of solo)
E|--------------------------------------------------|
B|--------------------------------------------------|
G|--------------------------------------------------|
D|-13-13-13-13-13-13-13-13-13-13-13-13-13-13-13-13\-|
A|-13-13-13-13-13-13-13-13-13-13-13-13-13-13-13-13\-|
D|-13-13-13-13-13-13-13-13-13-13-13-13-13-13-13-13\-|

Play Riff 5a   "I shake my fist up to the sky!"
Play Riff 5b   "I'm one part saint and two parts sinner!"
Play Riff 5a   "I shake my fist up to the sky!"
Play Riff 5b   "I'm one part saint and two parts sinner!"
Play Riff 2    "And the last part is still on the line!"

Riff 9
E|------------------|
B|------------------|
G|------------------|
D|-12-0--0--0--0--0-|
A|-12-0--0--0--0--0-|
D|-12-0--0--0--0--0-|

There you go, everything minus the main solo which I'll tab later. Next is Shadow Of A Soul!
Добавлено: 05.06.2012
Другие материалы по этой песне:
  • Аккорды и текст

Страница создана 25.04.2012
http://primanota.ru/godsmack/saints-and-sinners-chords.htm
Привет, Гость.
Предлагаем пройти революционный курс по гитаре.
Подарок от PrimaNota.Ru, забирай!