PrimaNota.ru - самый крупный в мире бесплатный архив песенных текстов, аккордов, табулатур и нот


Godsmack - Inside Yourself - таба, видео

Регистрация Запомнить меня
Войти через:  Facebook Google Twitter Vk Yandex Mail.ru

Godsmack - Inside Yourself - таба, видео

Печатать
Просмотров: 107
Уроки эстрадного вокала в Санкт-Петербурге
|--------------------------------------------------------------------------------------------------------|
|                                       GODSMACK - INSIDE YOURSELF                                       |
|                                            Free track (2015)                                           |
|                                            Tab by Godspeedy                                            |
|--------------------------------------------------------------------------------------------------------|

                   If you have questions or corrections feel free to send me a message:
                                    https://www.facebook.com/Godspeedy14
                     
                 Also check out my Youtube channel: http://www.youtube.com/user/Godspeedy14

                                        Tuning: 6 strings DADGBE
                                                    
*********************************************GUITAR NOTATIONS*********************************************
*                                                                                                        *
*                                      | *   palm mute           |                                       *
*                                      | s   slide               |                                       *
*                                      | s\  slide downwards     |                                       *
*                                      | /s  slide in from below |                                       *
*                                      | h   hammer-on           |                                       *
*                                      | p   pull-off            |                                       *
*                                      | ~   vibrato             |                                       *
*                                      | b   bend                |                                       *
*                                      | r   release             |                                       *
*                                      | br  bend release        |                                       *
*                                      | ..  let ring            |                                       *
*                                                                                                        *
**********************************************************************************************************

|--------------------------------------------------------------------------------------------------------|
|                                          INTRO (00:00-00:16)                                           |
|--------------------------------------------------------------------------------------------------------|

Guitars 1 and 2 (w/ dist and wah-wah)

E|-------------------------------------|-------------------------------------|
B|-------------------------------------|-------------------------------------|
G|----------6--6---6--6--6--6--6--6--6-|----------9--9---9--9--9--9--9--9--9-|
D|-4----4---4--4---4--4--4--4--4--4--4-|-7----7---7--7---7--7--7--7--7--7--7-|
A|-4----4---4--4---4--4--4--4--4--4--4-|-7----7---7--7---7--7--7--7--7--7--7-|
D|-4----4---4--4---4--4--4--4--4--4--4-|-7----7---7--7---7--7--7--7--7--7--7-|

E|-------------------------------------|-------------------------------------------------|
B|-------------------------------------|-------------------------------------------------|
G|----------4--4---4--4--4--4--4--4--4-|-------------------------------------------------|
D|-2----2---2--2---2--2--2--2--2--2--2-|-------------------------------------------------|
A|-2----2---2--2---2--2--2--2--2--2--2-|-------------------------------------------------|
D|-2----2---2--2---2--2--2--2--2--2--2-|-2--4--4--4--2--4--4--2--4-/s7--7--7--7--2--2--2-|

E|-------------------------------------|-------------------------------------|
B|-------------------------------------|-------------------------------------|
G|----------6--6---6--6--6--6--6--6--6-|----------9--9---9--9--9--9--9--9--9-|
D|-4----4---4--4---4--4--4--4--4--4--4-|-7----7---7--7---7--7--7--7--7--7--7-|
A|-4----4---4--4---4--4--4--4--4--4--4-|-7----7---7--7---7--7--7--7--7--7--7-|
D|-4----4---4--4---4--4--4--4--4--4--4-|-7----7---7--7---7--7--7--7--7--7--7-|

E|-------------------------------------|
B|-------------------------------------|
G|----------4--4---4--4--4--4--4--4--4-|
D|-2----2---2--2---2--2--2--2--2--2--2-|
A|-2----2---2--2---2--2--2--2--2--2--2-|
D|-2----2---2--2---2--2--2--2--2--2--2-|

|--------------------------------------------------------------------------------------------------------|
|                                          VERSE (00:16-00:54)                                           |
|--------------------------------------------------------------------------------------------------------|

Guitars 1 and 2 (w/ dist)

E|------------------------------------------------|------------------------------------------------|
B|------------------------------------------------|------------------------------------------------|
G|------------------------------------------------|------------------------------------------------| x2
D|-4--4-------------------------------------------|------------------------------------------------|
A|-4--4-------------------------------------------|------------------------------------------------|
D|-4--4--4--4--4--4--4--4--4--4--4--4--4--4--4--4-|-4--4--4--4--4--4--4--4--4--4--4--4--4--4--4--4-|
         *  *  *  *  *  *  *  *  *  *  *  *  *  *   *  *  *  *  *  *  *  *  *  *  *  *  *  *  *  *
E|------------------------------------------------|------------------------------------------------|
B|------------------------------------------------|------------------------------------------------|
G|------------------------------------------------|------------------------------------------------|
D|-4--4-------------------------------------------|-------------------------------------------0--0-|
A|-4--4-------------------------------------------|-------------------------------------------0--0-|
D|-4--4--4--4--4--4--4--4--4--4--4--4--4--4--4--4-|-4--4--4--4--4--4--4--4--4--4--4--4--4--4--0--0-|
         *  *  *  *  *  *  *  *  *  *  *  *  *  *   *  *  *  *  *  *  *  *  *  *  *  *  *  *
E|------------------------------------------------|------------------------------------------------|
B|------------------------------------------------|------------------------------------------------|
G|------------------------------------------------|------------------------------------------------|
D|-2--2-------------------------------------------|------------------------------------------------|
A|-2--2-------------------------------------------|------------------------------------------------|
D|-2--2--2--2--2--2--2--2--2--2--2--2--2--2--2--2-|-2--2--2--2--2--2--2--2--2--2--2--2--2--2--2--2-|
         *  *  *  *  *  *  *  *  *  *  *  *  *  *   *  *  *  *  *  *  *  *  *  *  *  *  *  *  *  *
E|------------------------------------------------|------------------------------------------------|
B|------------------------------------------------|------------------------------------------------|
G|------------------------------------------------|------------------------------------------------| x2
D|-4--4-------------------------------------------|------------------------------------------------|
A|-4--4-------------------------------------------|------------------------------------------------|
D|-4--4--4--4--4--4--4--4--4--4--4--4--4--4--4--4-|-4--4--4--4--4--4--4--4--4--4--4--4--4--4--4--4-|
         *  *  *  *  *  *  *  *  *  *  *  *  *  *   *  *  *  *  *  *  *  *  *  *  *  *  *  *  *  *
E|------------------------------------------------|------------------------------------------------|
B|------------------------------------------------|------------------------------------------------|
G|------------------------------------------------|------------------------------------------------|
D|-4--4-------------------------------------------|-------------------------------------------0--0-|
A|-4--4-------------------------------------------|-------------------------------------------0--0-|
D|-4--4--4--4--4--4--4--4--4--4--4--4--4--4--4--4-|-4--4--4--4--4--4--4--4--4--4--4--4--4--4--0--0-|
         *  *  *  *  *  *  *  *  *  *  *  *  *  *   *  *  *  *  *  *  *  *  *  *  *  *  *  *
E|------------------------------------------------|----------------------------|
B|------------------------------------------------|------3---------------------|
G|------------------------------------------------|------2---------4----4---4--|
D|-2--2-------------------------------------------|-0----0----2----2----2---2--|
A|-2--2-------------------------------------------|-0----0----2----2----2---2--|
D|-2--2--2--2--2--2--2--2--2--2--2--2--2--2--2--2-|-0----0----2----2----2---2--|
         *  *  *  *  *  *  *  *  *  *  *  *  *  *  

|--------------------------------------------------------------------------------------------------------|
|                                          CHORUS (00:54-01:13)                                          |
|--------------------------------------------------------------------------------------------------------|

Guitars 1 and 2 (w/ dist)

E|-------------------------------------|-------------------------------------|
B|-------------------------------------|-------------------------------------|
G|----------6--6---6--6--6--6--6--6--6-|----------9--9---9--9--9--9--9--9--9-|
D|-4----4---4--4---4--4--4--4--4--4--4-|-7----7---7--7---7--7--7--7--7--7--7-|
A|-4----4---4--4---4--4--4--4--4--4--4-|-7----7---7--7---7--7--7--7--7--7--7-|
D|-4----4---4--4---4--4--4--4--4--4--4-|-7----7---7--7---7--7--7--7--7--7--7-|

E|-------------------------------------|-------------------------------------------------|
B|-------------------------------------|-------------------------------------------------|
G|----------4--4---4--4--4--4--4--4--4-|-------------------------------------------------|
D|-2----2---2--2---2--2--2--2--2--2--2-|-------------------------------------------------|
A|-2----2---2--2---2--2--2--2--2--2--2-|-------------------------------------------------|
D|-2----2---2--2---2--2--2--2--2--2--2-|-2--4--4--4--2--4--4--2--4-/s7--7--7--7--2--2--2-|

E|-------------------------------------|-------------------------------------|
B|-------------------------------------|-------------------------------------|
G|----------6--6---6--6--6--6--6--6--6-|----------9--9---9--9--9--9--9--9--9-|
D|-4----4---4--4---4--4--4--4--4--4--4-|-7----7---7--7---7--7--7--7--7--7--7-|
A|-4----4---4--4---4--4--4--4--4--4--4-|-7----7---7--7---7--7--7--7--7--7--7-|
D|-4----4---4--4---4--4--4--4--4--4--4-|-7----7---7--7---7--7--7--7--7--7--7-|

E|----------------------------------|----------------------------|
B|----------------------------------|------3---------------------|
G|----------4--4---4--4--4--4---4---|------2---------4----4---4--|
D|-2----2---2--2---2--2--2--2---2---|-0----0----2----2----2---2--|
A|-2----2---2--2---2--2--2--2---2---|-0----0----2----2----2---2--|
D|-2----2---2--2---2--2--2--2---2---|-0----0----2----2----2---2--|

|--------------------------------------------------------------------------------------------------------|
|                                         VERSE 2 (01:13-01:50)                                          |
|--------------------------------------------------------------------------------------------------------|

Guitars 1 and 2 (w/ dist)

E|------------------------------------------------|------------------------------------------------|
B|------------------------------------------------|------------------------------------------------|
G|------------------------------------------------|------------------------------------------------| x2
D|-4--4-------------------------------------------|------------------------------------------------|
A|-4--4-------------------------------------------|------------------------------------------------|
D|-4--4--4--4--4--4--4--4--4--4--4--4--4--4--4--4-|-4--4--4--4--4--4--4--4--4--4--4--4--4--4--4--4-|
         *  *  *  *  *  *  *  *  *  *  *  *  *  *   *  *  *  *  *  *  *  *  *  *  *  *  *  *  *  *
E|------------------------------------------------|------------------------------------------------|
B|------------------------------------------------|------------------------------------------------|
G|------------------------------------------------|------------------------------------------------|
D|-4--4-------------------------------------------|-------------------------------------------0--0-|
A|-4--4-------------------------------------------|-------------------------------------------0--0-|
D|-4--4--4--4--4--4--4--4--4--4--4--4--4--4--4--4-|-4--4--4--4--4--4--4--4--4--4--4--4--4--4--0--0-|
         *  *  *  *  *  *  *  *  *  *  *  *  *  *   *  *  *  *  *  *  *  *  *  *  *  *  *  *
E|------------------------------------------------|------------------------------------------------|
B|------------------------------------------------|------------------------------------------------|
G|------------------------------------------------|------------------------------------------------|
D|-2--2-------------------------------------------|-------------------------------------------0--0-|
A|-2--2-------------------------------------------|-------------------------------------------0--0-|
D|-2--2--2--2--2--2--2--2--2--2--2--2--2--2--2--2-|-2--2--2--2--2--2--2--2--2--2--2--2--2--2--0--0-|
         *  *  *  *  *  *  *  *  *  *  *  *  *  *   *  *  *  *  *  *  *  *  *  *  *  *  *  *    
E|------------------------------------------------|------------------------------------------------|
B|------------------------------------------------|------------------------------------------------|
G|------------------------------------------------|------------------------------------------------|
D|-4--4-------------------------------------------|------------------------------------------------|
A|-4--4-------------------------------------------|------------------------------------------------|
D|-4--4--4--4--4--4--4--4--4--4--4--4--4--4--4--4-|-4--4--4--4--4--4--4--4--4--4--4--4--4--4--4--4-|
         *  *  *  *  *  *  *  *  *  *  *  *  *  *   *  *  *  *  *  *  *  *  *  *  *  *  *  *  *  *
E|------------------------------------------------|------------------------------------------------|
B|------------------------------------------------|------------------------------------------------|
G|------------------------------------------------|------------------------------------------------|
D|-4--4-------------------------------------------|-4--4-------------------------------------------|
A|-4--4-------------------------------------------|-4--4-------------------------------------------|
D|-4--4--4--4--4--4--4--4--4--4--4--4--4--4--4--4-|-4--4--4--4--4--4--4--4--4--4--4--4--4--4--4--4-|
         *  *  *  *  *  *  *  *  *  *  *  *  *  *         *  *  *  *  *  *  *  *  *  *  *  *  *  *
E|------------------------------------------------|------------------------------------------------|
B|------------------------------------------------|------------------------------------------------|
G|------------------------------------------------|------------------------------------------------|
D|-4--4--------------------4--4-------------------|-4--4--------4--4--------4--4--------4--4--0--0-|
A|-4--4--------------------4--4-------------------|-4--4--------4--4--------4--4--------4--4--0--0-|
D|-4--4--4--4--4--4--4--4--4--4--4--4--4--4--4--4-|-4--4--4--4--4--4--4--4--4--4--4--4--4--4--0--0-|
         *  *  *  *  *  *        *  *  *  *  *  *         *  *        *  *        *  *
E|----------------------------------|----------------------------|
B|----------------------------------|------3---------------------|
G|----------4--4---4--4--4--4---4---|------2---------4----4---4--|
D|-2----2---2--2---2--2--2--2---2---|-0----0----2----2----2---2--|
A|-2----2---2--2---2--2--2--2---2---|-0----0----2----2----2---2--|
D|-2----2---2--2---2--2--2--2---2---|-0----0----2----2----2---2--|

|--------------------------------------------------------------------------------------------------------|
|                                         CHORUS 2 (01:50-02:28)                                         |
|--------------------------------------------------------------------------------------------------------|

Guitars 1 and 2 (w/ dist)

                                                                --------------------------------|
E|-------------------------------------|-------------------------------------|                  |
B|-------------------------------------|-------------------------------------|                  |
G|----------6--6---6--6--6--6--6--6--6-|----------9--9---9--9--9--9--9--9--9-|                  |
D|-4----4---4--4---4--4--4--4--4--4--4-|-7----7---7--7---7--7--7--7--7--7--7-|                  |
A|-4----4---4--4---4--4--4--4--4--4--4-|-7----7---7--7---7--7--7--7--7--7--7-|                  |
D|-4----4---4--4---4--4--4--4--4--4--4-|-7----7---7--7---7--7--7--7--7--7--7-|                  |
                                                                                                |
E|-------------------------------------|-------------------------------------------------|      |
B|-------------------------------------|-------------------------------------------------|      |
G|----------4--4---4--4--4--4--4--4--4-|-------------------------------------------------|      |
D|-2----2---2--2---2--2--2--2--2--2--2-|-------------------------------------------------|      |
A|-2----2---2--2---2--2--2--2--2--2--2-|-------------------------------------------------|      |
D|-2----2---2--2---2--2--2--2--2--2--2-|-2--4--4--4--2--4--4--2--4-/s7--7--7--7--2--2--2-|      |
                                                                                                |
E|-------------------------------------|-------------------------------------|                  |
B|-------------------------------------|-------------------------------------|                  |
G|----------6--6---6--6--6--6--6--6--6-|----------9--9---9--9--9--9--9--9--9-|                  |
D|-4----4---4--4---4--4--4--4--4--4--4-|-7----7---7--7---7--7--7--7--7--7--7-|                  |
A|-4----4---4--4---4--4--4--4--4--4--4-|-7----7---7--7---7--7--7--7--7--7--7-|                  |
D|-4----4---4--4---4--4--4--4--4--4--4-|-7----7---7--7---7--7--7--7--7--7--7-|                  |
                                                                                                |
E|----------------------------------|----------------------------|                              |
B|----------------------------------|------3---------------------|                              |
G|----------4--4---4--4--4--4---4---|------2---------4----4---4--|                              |
D|-2----2---2--2---2--2--2--2---2---|-0----0----2----2----2---2--|                              |
A|-2----2---2--2---2--2--2--2---2---|-0----0----2----2----2---2--|                              |
D|-2----2---2--2---2--2--2--2---2---|-0----0----2----2----2---2--|                              |
                                                                --------------------------------|

|--------------------------------------------------------------------------------------------------------|
|                                          BRIDGE (02:28-02:37)                                          |
|--------------------------------------------------------------------------------------------------------|

Guitars 1 and 2 (w/ dist)

E|-------------------------------------------------|
B|-------------------------------------------------|
G|-------------------------------------------------| x4
D|-------------------------------------------------|
A|-------------------------------------------------|
D|-2--4--4--4--2--4--4--2--4-/s7--7--7--7--2--2--2-|

|--------------------------------------------------------------------------------------------------------|
|                                           SOLO (02:37-03:13)                                           |
|--------------------------------------------------------------------------------------------------------|

Guitars 1 and 2 (w/ dist) - Rhythm for SOLO

E|-------------------------------------------------|-------------------------------------------------|
B|-------------------------------------------------|-------------------------------------------------|
G|-------------------------------------------------|-------------------------------------------------|
D|-------------------------------------------------|-------------------------------------------------|
A|-------------------------------------------------|-------------------------------------------------|
D|-2--4--4--4--2--4--4--2--4-/s7--7--7--7--2--2--2-|-2--4--4--4--2--4--4--2--4-/s9--9--9--9--7--7--7-|

E|-------------------------------------------------|-------------------------------------------------|
B|-------------------------------------------------|-------------------------------------------------|
G|-------------------------------------------------|-------------------------------------------------|
D|-------------------------------------------------|-------------------------------------------------|
A|-------------------------------------------------|-------------------------------------------------|
D|-2--4--4--4--2--4--4--2--4-/s7--7--7--7--2--2--2-|-4--4--4--4-s7--7--7--7-s9--9--9--9-s11-11-11-11-|

E|-------------------------------------|-------------------------------------|
B|-------------------------------------|-------------------------------------|
G|----------6--6---6--6--6--6--6--6--6-|----------9--9---9--9--9--9--9--9--9-|
D|-4----4---4--4---4--4--4--4--4--4--4-|-7----7---7--7---7--7--7--7--7--7--7-|
A|-4----4---4--4---4--4--4--4--4--4--4-|-7----7---7--7---7--7--7--7--7--7--7-|
D|-4----4---4--4---4--4--4--4--4--4--4-|-7----7---7--7---7--7--7--7--7--7--7-|

E|-------------------------------------|-------------------------------------|
B|-------------------------------------|-------------------------------------|
G|----------4--4---4--4--4--4--4--4--4-|----------6--6---6--6--6--6--6--6--6-|
D|-2----2---2--2---2--2--2--2--2--2--2-|-4----4---4--4---4--4--4--4--4--4--4-|
A|-2----2---2--2---2--2--2--2--2--2--2-|-4----4---4--4---4--4--4--4--4--4--4-|
D|-2----2---2--2---2--2--2--2--2--2--2-|-4----4---4--4---4--4--4--4--4--4--4-|

E|-------------------------------------|-------------------------------------|
B|-------------------------------------|-------------------------------------|
G|----------6--6---6--6--6--6--6--6--6-|----------9--9---9--9--9--9--9--9--9-|
D|-4----4---4--4---4--4--4--4--4--4--4-|-7----7---7--7---7--7--7--7--7--7--7-|
A|-4----4---4--4---4--4--4--4--4--4--4-|-7----7---7--7---7--7--7--7--7--7--7-|
D|-4----4---4--4---4--4--4--4--4--4--4-|-7----7---7--7---7--7--7--7--7--7--7-|

                                      ......................   ......................
E|---------------------------------|-------0----------------|-------0----------------|
B|---------------------------------|------------3-----------|------------3-----------|
G|----------4--4---4--4--4--4---4--|-----------------2------|-----------------2------|
D|-2----2---2--2---2--2--2--2---2--|-0-------------------0--|-0-------------------0--|
A|-2----2---2--2---2--2--2--2---2--|-0----------------------|-0----------------------|
D|-2----2---2--2---2--2--2--2---2--|-0----------------------|-0----------------------|

E|--------------------------------|--------------------------------|
B|--------------------------------|--------------------------------|
G|--------------------------------|--------------------------------|
D|-6---6---6---6---6---6---6---6--|-6---6---6---6---6---6---6---6--|
A|-4---4---4---4---4---4---4---4--|-4---4---4---4---4---4---4---4--|
D|--------------------------------|--------------------------------|
       *   *   *

Guitar 3 (w/ dist and delay and wah-wah)

E|-------------------------------------------------|-------------------------------------------------|
B|-------------------------------------------------|-------------------------------------------------|
G|-------------------------------------------------|-------------------------------------------------|
D|-2--4--4--4--2--4--4--2--4-/s7--7--7--7--2--2--2-|-2--4--4--4--2--4--4--2--4-/s9--9--9--9--7--7--7-|
A|-------------------------------------------------|-------------------------------------------------|
D|-------------------------------------------------|-------------------------------------------------|

E|-------------------------------------------------|-------------------------------------------------|
B|-------------------------------------------------|-------------------------------------------------|
G|-------------------------------------------------|-------------------------------------------------|
D|-2--4--4--4--2--4--4--2--4-/s7--7--7--7--2--2--2-|-4--4--4--4-s7--7--7--7-s9--9--9--9-s11-11-11-11-|
A|-------------------------------------------------|-------------------------------------------------|
D|-------------------------------------------------|-------------------------------------------------|

E|---------------|---------------|--------16~~~~----|-16--b--r--16~~~12~~~~~|
B|-------17------|-------14------|--------------14--|-----------------------|
G|-14------------|-11------------|-/s14-------------|-----------------------|
D|---------------|---------------|------------------|-----------------------|
A|---------------|---------------|------------------|-----------------------|
D|---------------|---------------|------------------|-----------------------|

E|---------------------|---------------------------|
B|---------------------|---------------------------|
G|---------------------|---------------------------|
D|---------14----------|-14--b--r--~~~~s\--9--11~~~|
A|-/s12----------/s12--|---------------------------|
D|---------------------|---------------------------|

E|------------------------------|-/s17~~~~14-15-12-14-12~~~~~|~~~~~~~14-12------------|
B|------------------------------|----------------------------|-------------14-13b-r---|
G|------------------------------|----------------------------|---------------------14-|
D|-9h11p9-9~~~~9h11p9-----------|----------------------------|------------------------|
A|--------------------12-11~~~~~|----------------------------|------------------------|
D|------------------------------|----------------------------|------------------------|

E|--------------------------|-17~~~~~|
B|-14--b--r--b--r--b--r--b--|--------|
G|--------------------------|--------|
D|--------------------------|--------|
A|--------------------------|--------|
D|--------------------------|--------|

|--------------------------------------------------------------------------------------------------------|
|                                         CHORUS 3 (03:13-03:50)                                         |
|--------------------------------------------------------------------------------------------------------|
                                             same as CHORUS 2
|--------------------------------------------------------------------------------------------------------|
|                                          OUTRO (03:50-04:04)                                           |
|--------------------------------------------------------------------------------------------------------|
                                              same as BRIDGE


Добавлено: 29.05.2016
Другие материалы по этой песне:

Страница создана 29.05.2016
http://primanota.ru/godsmack/inside-yourself-chords.htm
Привет, Гость.
Предлагаем пройти революционный курс по гитаре.
Подарок от PrimaNota.Ru, забирай!