PrimaNota.ru - самый крупный в мире бесплатный архив песенных текстов, аккордов, табулатур и нот


Godsmack - Bring It On - текст песни, таба, видео

Регистрация Запомнить меня
Войти через:  Facebook Google Twitter Vk Yandex Mail.ru

Godsmack - Bring It On - текст песни, таба, видео

Печатать
Просмотров: 188
Intro:
D|-----------------------------------|
A|-----------------------------------|
F|-----------------------------------|
C|--0-2-2-2-0-2-2-2-0-2-0-2-0-2-2-2--|
G|--0-2-2-2-0-2-2-2-0-2-0-2-0-2-2-2--|
C|--0-2-2-2-0-2-2-2-0-2-0-2-0-2-2-2--|


D|-----------------------------|
A|--------------------6666666--|
F|--------------------5555555--|
C|--0-2-2-2-0-2-2-2-3-3333333--|
G|--0-2-2-2-0-2-2-2-3-3333333--|
C|--0-2-2-2-0-2-2-2-3-3333333--| x3



Then the fourth time..
D|-------------------------------------|
A|----------------------------------3--|
F|----------------------------------2--|
C|--0-2-2-2-0-2-2-2-0-2-0-2-0-2-2-2-0--|
G|--0-2-2-2-0-2-2-2-0-2-0-2-0-2-2-2-0--|
C|--0-2-2-2-0-2-2-2-0-2-0-2-0-2-2-2-0--|

Verse:
D|---------------------------|
A|---------------------------|
F|---------------------------|
C|--0-2-2-2-0-2-2-2-0-2-2-2--|
G|--0-2-2-2-0-2-2-2-0-2-2-2--|
C|--0-2-2-2-0-2-2-2-0-2-2-2--|
    x x x x x x x x x x x x


D|-----------------------------------|
A|-----------------------------------|
F|-----------------------------------|
C|--0-2-2-2-0-2-2-2-0-2-3-3-3-3-0-0--|
G|--0-2-2-2-0-2-2-2-0-2-3-3-3-3-0-0--|
C|--0-2-2-2-0-2-2-2-0-2-3-3-3-3-0-0--|
    x  x  x  x  x  x  x  x  x  x  x 


D|-------------------------------------------|
A|---------------------------------3-3-66-6--|
F|---------------------------------2-3-55-6--|
C|--0-2-2-2-0-2-2-2-0-2-2-2-0-0--0-0-0-33-3--|
G|--0-2-2-2-0-2-2-2-0-2-2-2-0-0--0-0-0-33-3--|
C|--0-2-2-2-0-2-2-2-0-2-2-2-0-0--0-0-0-33-3--|
    x x x x x x x x x x x x x x  x


D|---------------------------|
A|---------------------------|
F|---------------------------|
C|--0-2-2-2-0-2-2-2-0-2-2-2--|
G|--0-2-2-2-0-2-2-2-0-2-2-2--|
C|--0-2-2-2-0-2-2-2-0-2-2-2--|
    x x x x x x x x x x x x  


D|----------------------------------|
A|----------------------------------|
F|----------------------------------|
C|--0-2-2-2-0-2-2-2-0-2-3-3-3-3-0-0-|
G|--0-2-2-2-0-2-2-2-0-2-3-3-3-3-0-0-|
C|--0-2-2-2-0-2-2-2-0-2-3-3-3-3-0-0-|
    x x x x x x x x x x x x x x x x

Pre-chorus:
D|---------------------------------------|
A|---------------------------------------|
F|---------------------------------------|
C|--0-2-2-2-0-2-2-2-0-2-3-3-3-3-3--3--3--|
G|--0-2-2-2-0-2-2-2-0-2-3-3-3-3-1--1--1--|
C|--0-2-2-2-0-2-2-2-0-2-3-3-3-3----------|


Chorus:
D|--------------------------------------------------------|
A|--------------------------------------------------------|
F|--------------------------------------------------------|
C|--77-0-3--3-2--2-3--77-0-3--3-2--5-555-77-0-3--3-3-3-3--|
G|--55-0-1--1-0--0-3--55-0-1--1-0--3-333-55-0-3--3-1-1-1--|
C|-----0-----------3-----0------------------0-3--3--------|
       x                 x                  x

D|-------------------|
A|-------------------|
F|-------------------|
C|--77-0-3--3--1-----|
G|--55-0-3--3--1-----|
C|-----0-3--3--1-----|
       x


Breakdown:
D|------------------------------------------------------------------|
A|------------------------------------------------------------------|
F|------------------------------------------------------------------|
C|------------------------------------------------------------------|
G|------------------------------------------------------------------|
C|--0-00-00-00-00-001b-00-00-00-00-006b-00-00-00-00-001b-00-0-1s12--|
    x xx xx xx xx xx   xx xx xx xx xx   xx xx xx xx xx   xx x


D|-------------------------------------------------------------------------|
A|----------------------------------------------------------------------4--|
F|----------------------------------------------------------------------3--|
C|------0-00-00-00-00-00---00-00-00-00-00---00-00-00-00-00---00-00-00-0-1--|
G|------0-00-00-00-00-00---00-00-00-00-00---00-00-00-00-00---00-00-00-0-1--|
C|--12/-0-00-00-00-00-001b-00-00-00-00-006b-00-00-00-00-001b-00-00-00-0-1--|
        x xx xx xx xx xx   xx xx xx xx xx   xx xx xx xx xx   xx xx xx x


D|---------------------------------------------------------------------|
A|---------------------------------------------------------------------|
F|------------------------------------------------------------------1--|
C|--0-00-00-00-00-00---00-00-00-00-00---00-00-00-00-00---00-00-00-0-1--|
G|--0-00-00-00-00-00---00-00-00-00-00---00-00-00-00-00---00-00-00-0-1--|
C|--0-00-00-00-00-001b-00-00-00-00-006b-00-00-00-00-001b-00-00-00-0-1--|
    x xx xx xx xx xx   xx xx xx xx xx   xx xx xx xx xx   xx xx xx x


D|---------------------------------------------------------------------|
A|------------------------------------------------------------------4--|
F|------------------------------------------------------------------3--|
C|--0-00-00-00-00-00---00-00-00-00-00---00-00-00-00-00---00-00-00-0-1--|
G|--0-00-00-00-00-00---00-00-00-00-00---00-00-00-00-00---00-00-00-0-1--|
C|--0-00-00-00-00-001b-00-00-00-00-006b-00-00-00-00-001b-00-00-00-0-1--|
    x xx xx xx xx xx   xx xx xx xx xx   xx xx xx xx xx   xx xx xx x


Bridge:
D|-------------------------------|
A|--------4-444444-------4-555555|
F|--------3-333333-------3-444444|
C|--2-2-2-2-222222-2-2-2-2-333333|
G|--2-2-2-2-222222-2-2-2-2-333333|
C|--2-2-2-2-222222-2-2-2-2-333333| x2


Final Chorus:
D|--------------------------------------------------------------|
A|--------------------------------------------------------------|
F|--------------------------------------------------------------|
C|--77-0-3--3-2--2-3--77-0-3--3-2--5-555-77-0-3--3-3-5-7-5-3-5--|
G|--55-0-1--1-0--0-3--55-0-1--1-0--3-333-55-0-3--3-1-3-5-3-1-3--|
C|-----0-----------3-----0------------------0-3--3--------------|
       x                 x                  x

D|-------------------------------|
A|-------------------------------|
F|-------------------------------|
C|--77-0-3--3--1-111111111111----|
G|--55-0-3--3--1-111111111111----|
C|-----0-3--3--1-111111111111----|
       x         xxxxxxxxxxxx

Outro:
D|-----------------------------------|
A|-----------------------------------|
F|-----------------------------------|
C|--0-2-2-2-0-2-2-2-0-2-0-2-0-2-2-2--|
G|--0-2-2-2-0-2-2-2-0-2-0-2-0-2-2-2--|
C|--0-2-2-2-0-2-2-2-0-2-0-2-0-2-2-2--|


D|-----------------------------|
A|--------------------6666666--|
F|--------------------5555555--|
C|--0-2-2-2-0-2-2-2-3-3333333--|
G|--0-2-2-2-0-2-2-2-3-3333333--|
C|--0-2-2-2-0-2-2-2-3-3333333--| x3
Добавлено: 30.09.2013
Другие материалы по этой песне:
  • Аккорды и текст

Страница создана 28.03.2012
http://primanota.ru/godsmack/bring-it-on-chords.htm
Привет, Гость.
Предлагаем пройти революционный курс по гитаре.
Подарок от PrimaNota.Ru, забирай!