PrimaNota.ru - самый крупный в мире бесплатный архив песенных текстов, аккордов, табулатур и нот


Ghost - Waiting For The Night - бас-таба, видео

Регистрация Запомнить меня
Войти через:  Facebook Google Twitter Vk Yandex Mail.ru

Ghost - Waiting For The Night - бас-таба, видео

Печатать
Просмотров: 72
G|-----------------------------------------------------------------|
D|-----------------------------------------------------------------|
A|-----------------------------------------------------------------|
D|-5-------------------------------8-------------------------------|
   1 + 2 + 3 + 4 + 1 + 2 + 3 + 4 + 1 + 2 + 3 + 4 + 1 + 2 + 3 + 4 +

G|-----------------------------------------------------------------|
D|-------------------------------------------------6---------------|
A|-----------------------------------------------6---6-------------|
D|-4---------------8---------------6-----6-6-6-6-------6-6-3-------|
   1 + 2 + 3 + 4 + 1 + 2 + 3 + 4 + 1 + 2 + 3 + 4 + 1 + 2 + 3 + 4 +

G|-----------------------------------------------------------------|
D|-----------------------------------------------------------------|
A|-----------------------------------------------------------------|
D|-5---------------5---------------8---------------8---------------|
   1 + 2 + 3 + 4 + 1 + 2 + 3 + 4 + 1 + 2 + 3 + 4 + 1 + 2 + 3 + 4 +

G|-----------------------------------------------------------------|
D|-----------------------------------------------------------------|
A|-----------------------------------------------------------------|
D|-4---------------8---------------6-------------------------------|
   1 + 2 + 3 + 4 + 1 + 2 + 3 + 4 + 1 + 2 + 3 + 4 + 1 + 2 + 3 + 4 +

0:46
G|-----------------------------------------------------------------|
D|-------------6-------------------------------4-------------------|
A|-4-----4-4-------4-----4-4---------------------------------------|
D|---------------------------------4-----4-4-------4-----4-4-------|
   1 + 2 + 3 + 4 + 1 + 2 + 3 + 4 + 1 + 2 + 3 + 4 + 1 + 2 + 3 + 4 +

G|-----------------------------------------------------------------|
D|-----------------------------------------------------------------|
A|-------------8---------------------------------------------------|
D|-8-----8-8-------8-----8-8-------3-----3-3-------6-------6-------|
   1 + 2 + 3 + 4 + 1 + 2 + 3 + 4 + 1 + 2 + 3 + 4 + 1 + 2 + 3 + 4 +

1:08
G|-----------------------------------------------------------------|
D|-------------6-------------------------4-4---4-------------------|
A|-4-----4-4-------4-----4-4---------------------------------------|
D|---------------------------------4---------------4-----4-4-------|
   1 + 2 + 3 + 4 + 1 + 2 + 3 + 4 + 1 + 2 + 3 + 4 + 1 + 2 + 3 + 4 +

G|-----------------------------------------------------------------|
D|-----------------------------------------------------------------|
A|-1-----1-1-------1-----1-1---------------------------------------|
D|-------------3-------------------3-----3-3-------6-------r-------|
   1 + 2 + 3 + 4 + 1 + 2 + 3 + 4 + 1 + 2 + 3 + 4 + 1 + 2 + 3 + 4 +

1:30
G|-----------------------------------------------------------------|
D|-----------------------------------------------------------------|
A|-------------------------------------------------------------8-\-|
D|-5---r-5-5---r---5---r-5-5---r---8---r-8-8---r---8---r-8-8-------|
   1 + 2 + 3 + 4 + 1 + 2 + 3 + 4 + 1 + 2 + 3 + 4 + 1 + 2 + 3 + 4 +

G|-----------------------------------------------------------------|
D|-----------------------------------------------------------------|
A|-----------------------------------------6-----------------------|
D|-4---------------8-------8-8-8---6-----6-----6---6-------3-------|
   1 + 2 + 3 + 4 + 1 + 2 + 3 + 4 + 1 + 2 + 3 + 4 + 1 + 2 + 3 + 4 +

1:52
G|-----------------------------------------------------------------|
D|-----------------------------------------------------------------|
A|-------------------------------------------------------------8-\-|
D|-5---r-5-5---r---5---r-5-5---r---8---r-8-8---r---8---r-8-8-------|
   1 + 2 + 3 + 4 + 1 + 2 + 3 + 4 + 1 + 2 + 3 + 4 + 1 + 2 + 3 + 4 +

G|-----------------------------------------------------------------|
D|-----------------------------------------6-----------------------|
A|---------------------------------------6---6-6-------------------|
D|-4---------------8-------8-8-8---6-------------6-6---------------|
   1 + 2 + 3 + 4 + 1 + 2 + 3 + 4 + 1 + 2 + 3 + 4 + 1 + 2 + 3 + 4 +

2:14
G|-----------------------------------------------------------------|
D|-----------------------------------------------------------------|
A|-4-----4-4---4---4-----4-4---4-----------------------------------|
D|---------------------------------4-----4-4---4---4-----4-4---4---|
   1 + 2 + 3 + 4 + 1 + 2 + 3 + 4 + 1 + 2 + 3 + 4 + 1 + 2 + 3 + 4 +

G|-----------------------------------------------------------------|
D|---------------------------------------------------------6-------|
A|-1-----1-1---1---1-----1-1---1-------------------------6---6-----|
D|---------------------------------3-----3-3-3-3-3-6-6-6-------6-6-|
   1 + 2 + 3 + 4 + 1 + 2 + 3 + 4 + 1 + 2 + 3 + 4 + 1 + 2 + 3 + 4 +

G|-----------------------------------------------------------------|
D|-----------------------------------------------------------------|
A|-4-----4-4---4---4-----4-4---4-----------------------------------|
D|---------------------------------4-----4-4---4---4-----4-4---4---|
   1 + 2 + 3 + 4 + 1 + 2 + 3 + 4 + 1 + 2 + 3 + 4 + 1 + 2 + 3 + 4 +

G|-----------------------------------------------------------------|
D|-----------------------------------------3---------------6-------|
A|-1-----1-1---1---1-----1-1---1-----------------------------------|
D|---------------------------------3---3-3---3-3-3-6---6-6---6-6---|
   1 + 2 + 3 + 4 + 1 + 2 + 3 + 4 + 1 + 2 + 3 + 4 + 1 + 2 + 3 + 4 +

2:59
G|-----------------------------------------------------------------|
D|-----------------------------------------------------------------|
A|-----------------------------------------------------------------|
D|-1-1-1-1-1-1-1-1-1-1-1-1-1-1-1-1-3---3-3-3-3-3-3-8-8-8-8-8-8-8-8-|
   1 + 2 + 3 + 4 + 1 + 2 + 3 + 4 + 1 + 2 + 3 + 4 + 1 + 2 + 3 + 4 +

G|-----------------------------------------------------------------|
D|-----------------------------------------------------------------|
A|-----------------------------------------------------------------|
D|-1-1-1-1-1-1-1-1-1-1-1-1-1-1-1-1-3---3-3-3-3-3-3-3-------\-------|
   1 + 2 + 3 + 4 + 1 + 2 + 3 + 4 + 1 + 2 + 3 + 4 + 1 + 2 + 3 + 4 +

3:21
G|-----------------------------------------------------------------|
D|-------------5-------------------------------8---------------8-\-|
A|-----------------------------------------------------------------|
D|-5-----5-5-------5-----5-5-------8-----8-8-------8-----8-8-8-----|
   1 + 2 + 3 + 4 + 1 + 2 + 3 + 4 + 1 + 2 + 3 + 4 + 1 + 2 + 3 + 4 +

G|-----------------------------------------------------------------|
D|---------4---4-----------8---8-----------6-----------------------|
A|-----------------------------------------------------------------|
D|-4-----4---------8-----8---------6-----6-----6---6-------3-------|
   1 + 2 + 3 + 4 + 1 + 2 + 3 + 4 + 1 + 2 + 3 + 4 + 1 + 2 + 3 + 4 +

G|-----------------------------------------------------------------|
D|-------------5-------------------------------8-------------------|
A|-----------------------------------------------------------------|
D|-5-----5-5-------5-----5-5-------8-----8-8-------8-----8-8---8-\-|
   1 + 2 + 3 + 4 + 1 + 2 + 3 + 4 + 1 + 2 + 3 + 4 + 1 + 2 + 3 + 4 +

G|-----------------------------------------------------------------|
D|---------4---------------8---------------------------------------|
A|-----------------------------------------------------------------|
D|-4-----4-----4---8-----8-----8---6-------------------------------|
   1 + 2 + 3 + 4 + 1 + 2 + 3 + 4 + 1 + 2 + 3 + 4 + 1 + 2 + 3 + 4 +

4:05
G|-----------------------------------------------------------------|
D|-----------------------------------------------------------------|
A|-4-----4-4---4---4-----4-4---4-----------------------------------|
D|---------------------------------4-----4-4---4---4-----4-4---4---|
   1 + 2 + 3 + 4 + 1 + 2 + 3 + 4 + 1 + 2 + 3 + 4 + 1 + 2 + 3 + 4 +

G|-----------------------------------------------------------------|
D|---------------------------------------------------------6-------|
A|-1-----1-1---1---1-----1-1---1-------------------------6---6-----|
D|---------------------------------3-----3-3-3-3---6-6-6-------6-6-|
   1 + 2 + 3 + 4 + 1 + 2 + 3 + 4 + 1 + 2 + 3 + 4 + 1 + 2 + 3 + 4 +

G|-----------------------------------------------------------------|
D|-------------6---------------6---------------4---------------4---|
A|-4-----4-4-------4-----4-4---------------------------------------|
D|---------------------------------4-----4-4-------4-----4-4-------|
   1 + 2 + 3 + 4 + 1 + 2 + 3 + 4 + 1 + 2 + 3 + 4 + 1 + 2 + 3 + 4 +

G|-------------3---------------3-----------------------------------|
D|-------------------------------------------------------------6---|
A|-1-----1-1-------1-----1-1---------------------------------6---6-|
D|---------------------------------3-----3-3-3-3---6-6-6-6-6-------|
   1 + 2 + 3 + 4 + 1 + 2 + 3 + 4 + 1 + 2 + 3 + 4 + 1 + 2 + 3 + 4 +

4:49
G|-----------------------------------------------------------------|
D|-------------6-------6-----------------------4-------4-----------|
A|-4-----4-4-------4-----4-4---4-----------------------------------|
D|---------------------------------4-----4-4-------4-----4-4---4---|
   1 + 2 + 3 + 4 + 1 + 2 + 3 + 4 + 1 + 2 + 3 + 4 + 1 + 2 + 3 + 4 +

G|-----------------------------------------------------------------|
D|-------------3---------------3---------------------------6-------|
A|-1-----1-1-------1-----1-1-----------------------------6---6-----|
D|---------------------------------3-----3-3-3-3---6-6-6-------6-6-|
   1 + 2 + 3 + 4 + 1 + 2 + 3 + 4 + 1 + 2 + 3 + 4 + 1 + 2 + 3 + 4 +

G|-----------------------------------------------------------------|
D|-------------6---------------6---------------4---------------4---|
A|-4-----4-4-------4-----4-4---------------------------------------|
D|---------------------------------4-----4-4-------4-----4-4-------|
   1 + 2 + 3 + 4 + 1 + 2 + 3 + 4 + 1 + 2 + 3 + 4 + 1 + 2 + 3 + 4 +

G|-----------------------------------------------------------------|
D|-------------3---------------3---------------------------6-------|
A|-1-----1-1-------1-----1-1-----------------------------6---6-----|
D|---------------------------------3-----3-3-3-3-3-6-6-6-------6-6-|
   1 + 2 + 3 + 4 + 1 + 2 + 3 + 4 + 1 + 2 + 3 + 4 + 1 + 2 + 3 + 4 +

Tabbed by Dave Vucko
Добавлено: 11.03.2016
Вам также может быть интересно:
Другие материалы по этой песне:

Страница создана 11.03.2016
http://primanota.ru/ghost/waiting-for-night-chords.htm
Привет, Гость.
Предлагаем пройти революционный курс по гитаре.
Подарок от PrimaNota.Ru, забирай!