PrimaNota.ru - самый крупный в мире бесплатный архив песенных текстов, аккордов, табулатур и нот


George Michael - I Want Your Sex Part 1 2 And 3 - аккорды и текст, видео

Регистрация Запомнить меня
Войти через:  Facebook Google Twitter Vk Yandex Mail.ru

George Michael - I Want Your Sex Part 1 2 And 3 - аккорды и текст, видео

Печатать
Просмотров: 90
I Want Your Sex Part 1 2 And 3
George Michael
I WANT YOUR SEX I, II & III -- GEORGE MICHAEL, "Faith"(2011 remaster)
Exact chords tabbed out by ClassicalfreaK, 2015
Send me suggestions: AnAmericanComposer@gmail.com
Listen to the video I used: https://youtu.be/g6CYj7ZskQA

***THIS IS THE ENTIRE THREE-PART VERSION IN ONE RECORDING, 
WITH A MIXTURE OF CHORDS AND TABS IN BOTH GUITAR AND BASS, 
DEPENDING ON THE SECTION***

            [[A Few Tips:]]
- I have different types of verses marked numerically (Verse I,II,etc.)
- If the guitar/synth and bass parts are written as one system, the tab
  staves will be beamed together. If they're not, they're not to be played
  at the same time.
- Even though guitar doesn't play the brass lines in parts II and III, I
  wrote out the rhythm and voicing that would work best with the band.
- If the rhythm is confusing, break it down to the sixteenth. I wrote it
  so that all dashes (----) are sixteenths, and all of the rhythms, no
  matter how syncopated they are, are represented here exactly as is!
  So a simple eighth rhythm would look like: |0-0-0-0-0-0-0-0-| If THAT
  isn't enough of a guide, I include rhythmic notation for every tab, in
  the form of X...X... to represent "1e&a2e&a" notation (with Xs being
  the strong downbeat).

LEGEND FOR POSSIBLY UNFAMILIAR TERMS
- "Tacet" is music-speak for "don't play". So if a section on a tab is
  marked with, say, "TACET 2X", don't play the area inside the tacet on the
  second go around.
- "n/c" is another common musician term to denote "no chord". Rest up your
  overheating mind when you see n/c!
- "gtr." = guitar
- "synth." = synthesizer
- "pno." = piano
- "DS" = drums or drum-set
- "hns" = horns (brass ensemble)
- "DM" = drum machine
- "x" (as in, "2x" or "4th x") = time
- "tutti" is a musical term that says that everyone is playing together.


I love this song and it's not on UG, so I'm remedying that problem!
If you are looking for a fun, 11 minute song you found it!
Have fun and good luck to you!
==================================================================
                      
INTRO (key Bb)
     (bass synth.)
    Bb
G|| ----------------|---------------- ||
D||O----------------|----------------O||
A||O1---------------|----------------O||
E|| ----------------|---------------- || (2x)
    X...X...X...X...|X...X...X...X...   
                          (add DS 2nd x) 
    Bb
G|| ----------------|---------------- ||
D||O----------------|----------------O||
A||O1-11-11-1-11-11-|1-11-11-1-11-111O||
E|| ----------------|---------------- || (4x)
    X...X...X...X...|X...X...X...X...  

VERSE
        Bb
There's things that you guess
    Ab              Bb
And things that you know
There's boys you can trust
    Ab             Gm  Bb
And girls that you don't
There's little things you hide
    Ab                 Bb
And little things that you show
Sometimes you think you're gonna get it
        Ab                   Gm   Bb
But you don't and that's just the way it goes

BRIDGE
Bb              Eb
I swear I won't tease you
      Ab          Bb
Won't tell you no lies (yeaa)
  Bb           Eb
I don't need no bible
     Ab         Bb
Just look in my eyes
     Bb        Eb
I've waited so long baby
Ab             Bb
Now that we're friends
      Bb            Eb
Every man's got his patience
    Ab           Bb
And here's where mine ends

CHORUS
        (synth.)
    Ab/Bb            Bb               Ab/Bb            Bb
e|| --4--4--4--4--4-|6--6------------|--4--4--4--4--4-|6--6------6-6--- ||
B||O--4--4--4--4--4-|6--6------------|--4--4--4--4--4-|6--6------------O||
G|| --5--5--5--5--5-|7--7------------|--5--5--5--5--5-|7--7------3-3--- ||
D|| --6--6--6--6--6-|8--8------------|--6--6--6--6--6-|8--8------------ ||
A||O----------------|----------------|----------------|----------------O||
E|| ----------------|----------------|----------------|---------------- ||
    X...X...X...X...|X...X...X...X...|X...X...X...X...|X...X...X...X...
            Ab/Bb Bb
I want your sex
         Ab/Bb Bb
I want you
            Ab/Bb Bb
I want your sex
           Ab/Bb   Bb
I want your.... sex

VERSE
     Bb
It's playing on my mind
     Ab            Bb
It's dancing on my soul
     Bb
It's taken so much time
   Ab                Gm     Bb
So why don't you just let me go
    Bb               
I'd really like to try
       Ab             Bb
Oh I'd really love to know
         Bb
When you tell me you're gonna regret it
       Ab                               Gm        Bb
Then I tell you that I love you but you still say no!

BRIDGE
  Bb            Eb
I swear I won't tease you
      Ab          Bb
Won't tell you no lies
  Bb            Eb
I don't need no bible
     Ab         Bb
Just look in my eyes
     Bb             Eb
I've waited so long baby
Ab         Bb
Out in the cold
  Bb              Eb
I can't take much more, girl
    Ab        Bb
I'm losing control

CHORUS
      (synth.)
    Ab/Bb            Bb               Ab/Bb            Bb
    X...X...X...X...|X...X...X...X...|X...X...X...X...|X...X...X...X...
e|| --4--4--4--4--4-|6--6------------|--4--4--4--4--4-|6--6------6-6--- ||
B||O--4--4--4--4--4-|6--6------------|--4--4--4--4--4-|6--6------------O||
G|| --5--5--5--5--5-|7--7------------|--5--5--5--5--5-|7--7------3-3--- ||
D|| --6--6--6--6--6-|8--8------------|--6--6--6--6--6-|8--8------------ ||
A||O----------------|----------------|----------------|----------------O||
E|| ----------------|----------------|----------------|---------------- ||
            Ab/Bb Bb
I want your sex
            Ab/Bb Bb
I want your love
            Ab/Bb Bb
I want your sex
           Ab/Bb     Bb
I want your..     Sex   sex! (Awwh!)

INSTRUMENTAL (Synth / bass)
  Bb
G|----------------|----------------|----------------|----------------|
D|----------------|----------------|----------------|----------------|
A|-------4-44-6---|-------4-44-6---|-------4-44-6---|-----4-6-64-----|
E|6--6-6----------|--66-6----------|6--6-6----------|--66--------6---|
  X...X...X...X...|X...X...X...X...|X...X...X...X...|X...X...X...X...|

G|----------------|----------------|----------------|----------------|
D|----------------|----------------|----------------|------------678-|
A|-------4-44-6---|-------4-44-6---|-------4-44-6---|---4-46-68-8----|
E|6666-6----------|--66-6----------|6--6-6----------|6-6-------------|
  X...X...X...X...|X...X...X...X...|X...X...X...X...|X...X...X...X...|

VERSE II
F
It's natural
It's chemical (let's do it)
It's logical
Habitual (can we do it?)
F
It's sensual
But most of all...
F
Sex is something we should do
Sex is something for me and you

Bb
Sex is natural - sex is good
Ab/Bb
Not everybody does it
              Bb
But everybody should
Bb
Sex is natural - sex is fun
Sex is best when it's... One on one

  Ab/Bb            Bb               Ab/Bb            Bb
  X...X...X...X...|X...X...X...X...|X...X...X...X...|X...X...X...X...
e|--4--4--4--4--4-|6--6------------|--4--4--4--4--4-|6--6--4-6--6----||
B|--4--4--4--4--4-|6--6------------|--4--4--4--4--4-|6--6--4-6--6----||
G|--5--5--5--5--5-|7--7------------|--5--5--5--5--5-|7--7--5-7--7----||
D|--6--6--6--6--6-|8--8------------|--6--6--6--6--6-|8--8--6-8--8----||
A|----------------|----------------|----------------|----------------||
E|--6--6--6--6--6-|----------------|--6--6--6--6--6-|----------------||
                         One on one....

INSTRUMENTAL (drum + bass solo)
  Bb               Ab    Bb         Bb               Ab    Gm   Bb
G|----------------|----------------|----------------|---------------- ||
D|----------------|----------------|----------------|----------------O||
A|----------------|----------------|----------------|----------------O||
E|6--6--6--6--666-|4--4--6---6-6666|6--6--6--6--666-|4--4--3----6-6-- ||
  X...X...X...X...|X...X...X...X...|X...X...X...X...|X...X...X...X...
                (above bassline continues through end of Part I)

CHORUS
    Ab/Bb            Bb               Ab/Bb            Bb
    X...X...X...X...|X...X...X...X...|X...X...X...X...|................
e|| --4--4--4--4--4-|6--6------------|--4--4--4--4--4-|6--6----6--6---- ||
B||O--4--4--4--4--4-|6--6------------|--4--4--4--4--4-|6--6----6--6----O||
G|| --5--5--5--5--5-|7--7------------|--5--5--5--5--5-|7--7----7--7---- ||
D|| --6--6--6--6--6-|8--8------------|--6--6--6--6--6-|8--8----8--8---- ||
A||O----------------|----------------|----------------|----------------O||
E|| ----------------|----------------|----------------|---------------- ||
Ab/Bb
(Hua--Sex!) I'm not your father
Bb/Ab           Bb
(Hua--Sex!) I'm not your brother
Ab/Bb         
(Hua--Sex!) Talk to your sister
Bb/Ab         Bb
(Hua--Sex!) I am a lover

INSTRUMENTAL (top: synth. bottom: bass. (words):backup vocals) 
  Ab/Bb            Bb/Ab Bb         Ab/Bb            Ab/Bb Gm   Bb
e|--4--4--4--4--4-|6--6------------|--4--4--4--4--4-|6--6--4-6--6----||
B|--4--4--4--4--4-|6--6------------|--4--4--4--4--4-|6--6--4-6--6----||
G|--5--5--5--5--5-|7--7------------|--5--5--5--5--5-|7--7--5-7--7----||
D|--6--6--6--6--6-|8--8------------|--6--6--6--6--6-|8--8--6-8--8----||
A|----------------|----------------|----------------|----------------||
E|----------------|----------------|----------------|----------------||
 |                |                |                |                ||
 |X...X...X...X...|X...X...X...X...|X...X...X...X...|X...X...X...X...||
 |                |                |                |                ||
G|----------------|----------------|----------------|----------------||
D|----------------|----------------|----------------|----------------||
A|----------------|----------------|----------------|----------------||
E|6--6--6--6--666-|4--4--6---6-6666|6--6--6--6--666-|4--4--3----6-6--||
(hua  -  sex!)   (hua  -  sex!)   (hua  -  sex!)    c-c-c-c-c-c-come on!

VERSE
Ab/Bb
What's your definition of dirty baby
Bb/Ab                Gm      Bb
What do you consider pornography
Ab/Bb 
Don't you know I love you till it hurts me baby
Bb/Ab                         Bb
Don't you think it's time you had sex with me
Ab/Bb
What's your definition of dirty baby
Bb/Ab            Gm      Bb
What do you call pornography
Ab/Bb 
Don't you know I love you till it hurts me baby
Bb/Ab                         Bb
Don't you think it's time you had sex with me

Ab/Bb | Bb/Ab  Gm Bb   |
               Sex with
Ab/Bb | Bb/Ab  Bb      |
me             Sex with
Ab/Bb | Bb/Ab  Gm Bb   |
me        Have sex with
Ab/Bb | n/c
me      C-c-c-c-c-c-come on!

   [====]
                      
INSTRUMENTAL (top: hns. bottom: bass.)
    Ab/Bb            Bb6              Ab/Bb            Bb6
    X...X...X...X...|X...X...X...X...|X...X...X...X...|X...X...X...X... ||
e|| --4--4--4--4--4-|6--6------------|--4--4--4--4--4-|6--6--4-6--6---- ||
B||O--4--4--4--4--4-|6--6---------6--|--4--4--4--4--4-|6--6--4-6--6----O||
G|| --5--5--5--5--5-|7--7--------7--7|--5--5--5--5--5-|7--7--5-7--7---- ||
D|| --6--6--6--6--6-|8--8------------|--6--6--6--6--6-|8--8--6-8--8---- ||
A||O----------------|----------------|----------------|----------------O||
E|| ----------------|----------------|----------------|---------------- ||
 ||                 |                |                |                 ||
 || X...X...X...X...|X...X...X...X...|X...X...X...X...|X...X...X...X... ||
 ||                 |                |                |                 ||
G|| ----------------|----------------|----------------|---------------- ||
D||O----------------|--------8--8----|----------------|----------------O||
A||O----------------|----------------|----------------|--------8-13\---O||
E|| 1-3-4-3-4-3-4-3-|6--6------------|1-3-4-3-4-3-4-3-|6--6------------ ||

INSTRUMENTAL CONT. (top: pno.) *Bass stays the same
  Ab/Bb            Bb      (solo)       Ab/Bb       Bb              (bass)
  X...X...X...X...|X...X...X. . . X. ..|X...X...X...X...|X...X...X...X ...||
e|4---4---4---4---|6--6---6-- 1110-- --|4---4---4---6---|------------- ---||
B|4---4---4---4---|6--6-68--10- - -10--|4---4---4---6--6|------------- ---||
G|5---5---5---5---|7--7------ - - -- --|5---5---5---7--7|------------- ---||
D|6---6---6---6---|8--8------ - - -- --|6---6---6---8--8|------------- ---||
A|----------------|---------- - - -- --|---------------5|------------12\--||
E|----------------|---------- - - -- --|----------------|------------- ---||
        
VERSE II
C  F/C
 Oh so much love
F/C  Ab/C   C         F/C
 That you've never seen
      F/C
Let's make love
Ab/C     C          F/C
Put your trust in me
F/C        Ab/C                C       F/C
 Don't you listen to what they told you
               F/C
Because I love you
       Ab/C
Let me hold you
Oh
C
 I'm not your brother
F/C
 I'm not your father
F/C               Ab/Bb
 Oh will you ever change your mind
C                  F/C
 I'm a gentle lover with a heart of gold
F/C                   Ab/Bb
 But baby you've been so unkind, oh

CHORUS (top: hns. bottom: bass)
  Ab/Bb            Bb6              Ab/Bb            Bb6
  X...X...X...X...|X...X...X...X...|X...X...X...X...|X...X...X...X... ||
e|--4--4--4--4--4-|3--3------------|--4--4--4--4--4-|3--3--4-6--6---- ||
B|--4--4--4--4--4-|3--3---------6--|--4--4--4--4--4-|3--3--4-6--6----O||
G|--5--5--5--5--5-|3--3--------7--7|--5--5--5--5--5-|3--3--5-7--7---- ||
D|--6--6--6--6--6-|3--3------------|--6--6--6--6--6-|3--3--6-8--8---- ||
A|----------------|1--1------------|----------------|1--1------------O||
E|----------------|----------------|----------------|---------------- ||
 |                |                |                |                 ||
 |X...X...X...X...|X...X...X...X...|X...X...X...X...|X...X...X...X... ||
 |                |                |                |                 ||
G|----------------|----------------|----------------|---------------- ||
D|----------------|--------8--8----|----------------|----------------O||
A|----------------|----------------|----------------|--------8-13\---O||
E|1-3-4-3-4-3-4-3-|6--6------------|1-3-4-3-4-3-4-3-|6--6------------ ||

                    Come on, I-> (moves on below in chords)
            Ab/Bb Bb
I want your sex    liv-a-liv-a-liv-a-liv-a yea yea!
Ab/Bb Bb                    Ab/Bb Bb
       Come on, I want your sex
Ab/Bb
 That's right, all night
Bb6              Ab/Bb
 Oh, I want your sex
Ab/Bb Bb          Ab/Bb-->
       I want your--sex
  C    Bb    Ab Gm  
e|8 ---6-----4--3--||
A|8 ---6-----4--3--||
D|9 ---7-----5--3--||
G|10---8-----6--5--||
B|10---8-----6--5--||
E|8 ---6-----4--3--||
  X ...X...X...X...||
BRIDGE (horns on chords)
F
 Sexy baby's
G
 Sexy body
Am
 Keeps me guessing
C/Bb
 With a promise
F              G
 I know we can come together
Am
 But the question is
C/Bb
 Will we ever?
F                 G
Sexy baby's (sexy baby's)
                Am
Sexy body (sexy body)
Am
 Keeps me guessing (keeps me guessing)
C/Bb
 With a promise
F             G
I know we can come together
Am
 But the question is
C/Bb
Will we ever?
F   G    Am     C/Bb C C/B
Ooh... together
F   G       Am C/Bb  C
    You and me      (Awh!)

INSTRUMENTAL (tutti)
    F                G                C/E              Bb/F   (TACET 2X)
e|| 1--1--1-------1-|3--3------3--3--|0--0--0-------0-|x--x----x--x---- ||
B||O1--1--1-------1-|3--3------3--3--|1--1--1-------1-|3--3----3--3----O||
G|| 2--2--2-------2-|4--4------4--4--|0--0--0-------0-|3--3----3--3---- ||
D|| 3--3--3-------3-|5--5------5--5--|2--2--2-------2-|3--3----3--3---- ||
A||O3--3--3-------3-|5--5------5--5--|3--3--3-------3-|1--1----1--1----O||
E|| 1--1--1-------1-|3--3------3--3--|0--0--0-------0-|1--1----1--1---- ||
    X...X...X...X...|X...X...X...X...|X...X...X...X...|X...X...X...X... ||

CHORUS (top: horns. bottom: bass)
  Ab/Bb            Bb6              Ab/Bb            Bb6
  X...X...X...X...|X...X...X...X...|X...X...X...X...|X...X...X...X...|
e|4---4---4---4---|3--3------------|--4--4--4--4--4-|3--3------6-6---|
B|4---4---4---4---|3--3---------6--|--4--4--4--4--4-|3--3------x-x---|
G|5---5---5---5---|3--3--------7--7|--5--5--5--5--5-|3--3------x-x---|
D|6---6---6---6---|3--3------------|--6--6--6--6--6-|3--3------8-8---|
A|----------------|1--1------------|----------------|1--1------------|
E|----------------|----------------|----------------|----------------|
 |                |                |                |                |
 |X...X...X...X...|X...X...X...X...|X...X...X...X...|X...X...X...X...|
 |                |                |                |                |
G|----------------|----------------|----------------|----------------|
D|----------------|----------------|----------------|----------------|
A|----------------|--------5-5-7-7-|----------------|--------8-13\---|
E|1-3-4-3-4-3-4-3-|6--6------------|1-3-4-3-4-3-4-3-|6--6------------|

  Ab/Bb            Bb6              Ab/Bb            Bb6  Ab Bb
  X...X...X...X...|X...X...X...X...|X...X...X...X...|X...X...X...X...||
e|4---4---4---4---|3--3------------|--4--4--4--4--4-|3--3--4-6--6----||
B|4---4---4---4---|3--3---------6--|--4--4--4--4--4-|3--3--4-6--6----||
G|5---5---5---5---|3--3--------7--7|--5--5--5--5--5-|3--3--5-7--7----||
D|6---6---6---6---|3--3------------|--6--6--6--6--6-|3--3--6-8--8----||
A|----------------|1--1------------|----------------|1--1------------||
E|----------------|----------------|----------------|----------------||
 |                |                |                |                ||
 |X...X...X...X...|X...X...X...X...|X...X...X...X...|X...X...X...X...||
 |                |                |                |                ||
G|----------------|----------------|----------------|----------------||
D|----------------|----------------|----------------|----------------||
A|----------------|--------5-5-7-7-|----------------|----------------||
E|1-3-4-3-4-3-4-3-|6--6------------|1-3-4-3-4-3-4-3-|6--6----1---4---||
                             I want you...
CHORUS (key change to C)
  Bb               C6               Bb/C             C6      C
e|----------------|5--5------------|----------------|5--5------8-8---|
B|3---3---3---3---|5--5---------8--|--3--3--3--3--3-|5--5------------|
G|3---3---3---3---|5--5--------9--9|--3--3--3--3--3-|5--5------5-5---|
D|3---3---3---3---|5--5------------|--3--3--3--3--3-|5--5------------|
A|1---1---1---1---|3--3------------|--1--1--1--1--1-|3--5------------|
E|----------------|----------------|----------------|----------------|
 |                |                |                |                |
 |X...X...X...X...|X...X...X...X...|X...X...X...X...|X...X...X...X...|
 |                |                |                |                |
G|----------------|----------------|----------------|----------------|
D|----------------|--------2-2-5-5-|----------------|--------2---3---|
A|----------------|3--3------------|----------------|3---5-----------|
E|3-5-6-5-6-5-6-5-|----------------|3-5-6-5-6-5-6-5-|----------------|

  Bb/C             C6               Bb/C             C       B
e|----------------|5--5------------|----------------|----------------|
B|3---3---3---3---|5--5---------8--|--3--3--3--3--3-|5--5--5-4--4--4-|
G|3---3---3---3---|5--5--------9--9|--3--3--3--3--3-|5--5--5-4--4--4-|
D|3---3---3---3---|5--5------------|--3--3--3--3--3-|5--5--5-4--4--4-|
A|1---1---1---1---|3--3------------|--1--3--1--1--1-|3--3--3-2--2--2-|
E|----------------|----------------|----------------|----------------|
 |                |                |                |                |
 |X...X...X...X...|X...X...X...X...|X...X...X...X...|X...X...X...X...|
 |                |                |                |                |
G|----------------|------3-5~~-----|----------------|----------------|
D|----------------|-----5----------|----------------|----------------|
A|----------------|3--3------------|----------------|3--3--3-2--2--2-|
E|3-5-6-5-6-5-6-5-|----------------|3-5-6-5-6-5-6-5-|----------------|

  Bb      A        Ab              (Ab)              F/G
e|----------------|4---------------|--------------4-|1---------------|
B|3--3--3-2--2--2-|4---------------|--------------4-|1---------------|
G|3--3--3-2--2--2-|5---------------|--------------5-|2---------------|
D|3--3--3-2--2--2-|6---------------|--------------6-|3---------------|
A|1--1--1-0--0--0-|6---------------|--------------6-|----------------|
E|----------------|4---------------|--------------4-|3---------------|
 |                |                |                |                |
 |X...X...X...X...|X...X...X...X...|X...X...X...X...|X...X...X...X...|
 |                |                |                |                |
G|----------------|---3---5---6----|----------------|----------------|
D|----------------|----------------|----------------|----------------|
A|1--1--1-0--0--0-|-----4---6------|----------------|----------------|
E|----------------|4---------------|1--1--2--3--4-4-|3---------------|
                                                      (Drum machine)

(DS to fade)

                   
INTRO
(on a radio over DM)
"-guy's got his patience and here's where mine ends
     I want your-"
(DM)
n/c

VERSE
Em9   A
 It's late
Em9       A
 Time for bed
Dm9            G
 So I sit, and wait
         C
For that gin and tonic
   F #m7       B7
To go to your head
Em9 A
  I know
Em9             A
 It's a devious plan
             Dm9             G
But it's the only way that I know
             C
To get those big bad car keys
Bm7         E7
Out of your hand

BRIDGE
F#m9 B
 You know
     F#m      B
That I remain a gentle man
Bm7       E
 But even so
        Dm7
There's only so much
  G                  
A gentleman can stand

CHORUS
Em9 A             Em9 | A
     Sleep with me
Dm7 G             C      | Bm7 E7
 Oh sleep with me tonight

INSTRUMENTAL
Em9 | A | Em9 | A
Dm7 | G | C | Bm7 E7
F#m7 | B | F#m7 | B
Bm7 | E | Dm7 | G

VERSE
 (bass)
  Em9           A
G|----------------|----------------|
D|----------------|----------------|
A|--------0-0---0-|--0-------------|
E|0-0-3-3-----3---|----3-3-2-2-0-0-|
  X...X...X...X... X...X...X...X...
Em9   A
 It's late
Em9       A
 Time for bed
Dm9            G
 So I sit, and wait
         C
For that gin and tonic
   F#m7       B7
To go to your head
Em9 A
  I know
Em9             A
 It's a devious plan
             Dm9             G
But it's the only way that I know
             C
To get those big bad car keys
Bm7         E7
Out of your hand

BRIDGE
F#m9 B
 You know
     F#m      B
That I remain a gentle man
Bm7       E
 But even so
        Dm7
There's only so much
  G                  
A gentleman can stand

CHORUS
Em9 A             Em9 | A
     Sleep with me
Dm7 G             C      | Bm7 E7
 Oh sleep with me tonight

INSTRUMENTAL
Em9 | A | Em9 | A
Dm7 | G | C | Bm7 E7
F#m7 | B | F#m7 | B
Bm7 | E | Dm7 | G

VERSE
 (bass)
  Em9           A
G|----------------|----------------|
D|----------------|----------------|
A|--------0-0---0-|--0-------------|
E|0-0-3-3-----3---|----3-3-2-2-0-0-|
  X...X...X...X... X...X...X...X...
Em9   A
 It's late
Em9       A
 Time for bed
Dm9            G
 So I sit, and wait
         C
For that gin and tonic
   F #m7       B7
To go to your head
Em9 A
  I know
Em9             A
 It's a devious plan
             Dm9             G
But it's the only way that I know
             C
To get those big bad car keys
Bm7         E7
Out of your hand

BRIDGE
F#m9 B
 You know
     F#m      B
That I remain a gentle man
Bm7       E
 But even so
        Dm7
There's only so much
  G                  
A gentleman can stand

CHORUS
Em9 A             Em9 | A
     Sleep with me
Dm7 G             C      | Bm7 E7
 Oh sleep with me tonight

INSTRUMENTAL
Em9 | A | Em9 | A
Dm7 | G | C | Bm7 E7
F#m7 | B | F#m7 | B
Bm7 | E | Dm7 | G

VERSE
Em9           A
 My cards are on your table
Em9   A                Dm9
 My dreams are in your bed
   G         C Bm7 
If I was able
    E        F#m7
I'd be there instead

B | F#m7 | B |
Em7  A               D    | C#m7 F#7
 Oh, sleep with me tonight

INSTRUMENTAL (trumpet solo)
Em9 | A | Em9 | A
Dm9 | G | C | Bm7 E7
F#m7 | B | F#m7 | B
D | E | Dm7 | G
Em9 | A | Em7 | A
Em9 | A | Em9

================================================
Hey, you survived! I hope you enjoy my tab. Tell me what you think in
the comments.
-ClassicalfreaK
Добавлено: 15.04.2016
Другие материалы по этой песне:
  • Аккорды и текст

Страница создана 15.04.2016
http://primanota.ru/george-michael/i-want-your-sex-part-1-2-and-3-chords.htm
Привет, Гость.
Предлагаем пройти революционный курс по гитаре.
Подарок от PrimaNota.Ru, забирай!