PrimaNota.ru - самый крупный в мире бесплатный архив песенных текстов, аккордов, табулатур и нот


George Michael - Freeek - текст песни, таба, видео

Регистрация Запомнить меня
Войти через:  Facebook Google Twitter Vk Yandex Mail.ru

George Michael - Freeek - текст песни, таба, видео

Печатать
Просмотров: 630
Авторы музыки: George Michael, Moogymen

          George Michael - Freeek!

   Intro:

E|--1--1--1--1--1--1--1--1--|
B|--------------------------|
G|--------------------------|
D|--3--3--3--3--3--3--3--3--|
A|--------------------------|
E|--------------------------|
   (this is the sound of the phone, lol)

E|-------------------------------|
B|-------------------------------|
G|-------------------------------|      3x
D|--------3--3-------------5-----|
A|-------------------------------|
E|--1--1----------1--3--1--------|

E|-------------------15----------|
B|-------------------------------|
G|-------------------------------|
D|--------3--3----3--------------|
A|-------------------------------|
E|--1--1-------------------------|

Guitar 1:
E|----------------------3--|
B|----------------------3--|
G|-----1----------3-----3--|
D|-----3----------5--3-----|
A|-----3----------5--------|
E|--1-----1----1-----------|

Guitar 2:
E|----15b16-11--15-11--15b16-11-|
B|------------------------------|
G|------------------------------|
D|------------------------------|
A|------------------------------|
E|------------------------------|

Song:

Fm                                    Gm
 You got yourself some action
Fm                                     Gm
 Said you got yourself a body
Fm                     Gm                        Cm
 You got your-self an ass with a mind of it's own
             Gm
 Brings something to the party
Fm                              Gm
 You got yourself addicted
Fm                         Cm
 You shoot up, it saves you time
Fm                             Gm
 You got yourself a paycheck
 Cm                                                 Gm
 Faces on the places where the sun don't shine

                     Fm
 I'll be your sexual freak of the week
                     Gm
 I'll be your inspirational brother
       Fm
 Yo mama can't you see
                      Cm
 I'll be your sexual freak of the week
                     Gm
 I'll be your educational lover
          Fm
 Your one fuck Fantasy
                           Cm Gm            Fm
Can I come on in,   my sweet baby
Can I come on in 2x
Добавлено: 19.05.2012
Другие материалы по этой песне:
  • Аккорды и текст

Страница создана 17.03.2012
http://primanota.ru/george-michael/freeek-chords.htm
Привет, Гость.
Предлагаем пройти революционный курс по гитаре.
Подарок от PrimaNota.Ru, забирай!