PrimaNota.ru - самый крупный в мире бесплатный архив песенных текстов, аккордов, табулатур и нот


George Harrison - Thats The Way It Goes - аккорды и текст, таба, видео

Регистрация Запомнить меня
Войти через:  Facebook Google Twitter Vk Yandex Mail.ru

George Harrison - Thats The Way It Goes - аккорды и текст, таба, видео

Печатать
Просмотров: 169
Thats The Way It Goes
George Harrison
E|--------------------------------------------------------|
B|-8/12--15--13--15--10--10/12--13--15--15/17--17--15--12-|
G|--------------------------------------------------------|
D|--------------------------------------------------------|
A|--------------------------------------------------------|
E|--------------------------------------------------------|
 
E|---------------------------------------|
B|-8/12--15--13--15--10--10--12--13--7/8-|
G|---------------------------------------|
D|---------------------------------------|
A|---------------------------------------|
E|---------------------------------------|

verse:
Gmaj Dmaj D7 Cmaj
There's a man talking on the radio, what he's saying i dont really know.
seems his lost stocks and shares, stops and stares, he's affraid i know,
but that's the way it goes.

Chorus:

E|---------------------------------------------------|
B|-8/12--15--17/10--10/12--13--15--15/17--17--15--12-|
G|---------------------------------------------------|
D|---------------------------------------------------|
A|---------------------------------------------------|
E|---------------------------------------------------|

E|---------------------------------------|
B|-8/12--15--13--15--10--10--12--13--7/8-|
G|---------------------------------------|
D|---------------------------------------|
A|---------------------------------------|
E|---------------------------------------|

Verse:
There's a man talking of the promised land,he'll aquire it with some krugerrand,
and deal it out, feel his clout,he can stoop so low
and that's the way it goes.

Chorus:

E|-----------------------------------------------------------------|
B|-8/12--15--15--15--17--10--13--15--10--12--13--15/17--17--15--12-|
G|-----------------------------------------------------------------|
D|-----------------------------------------------------------------|
A|-----------------------------------------------------------------|
E|-----------------------------------------------------------------|

E|-----------------------------------------------------|
B|-8/12--15 15 15--17--10--13--15--10--10--12--13--7/8-|
G|-----------------------------------------------------|
D|-----------------------------------------------------|
A|-----------------------------------------------------|
E|-----------------------------------------------------|

Verse:
There's an actor who hopes to fit the bill, sees a shining city on a hill
step up close and see he's blind, wined and dined, all he has is pose
and that's the way it goes.

Chorus:

E|---------------------------------------------14-15-14h1514------------------|
B|-8/12--15--15--15--15--15--15/17--15--17--15--------------17--15--17--15-12-|
G|----------------------------------------------------------------------------|
D|----------------------------------------------------------------------------|
A|----------------------------------------------------------------------------|
E|----------------------------------------------------------------------------|

E|--------------------------14----17----12/15-|
B|-15--15--15--15/17--15--15----15----15------|
G|--------------------------------------------|
D|--------------------------------------------|
A|--------------------------------------------|
E|--------------------------------------------|

Verse:
There's a fire that burns away the lies, manifesting in the spiritual eye
though you won't understand the way I feel, you conceal, all there is to know
that's the way it goes.

that's the way it goes.

that's the way it goes.

Outro:

E|--------------------------------------------------------|
B|-8/12--15--13--15--10--10/12--13--15--15/17--17--15--12-|
G|--------------------------------------------------------|
D|--------------------------------------------------------|
A|--------------------------------------------------------|
E|--------------------------------------------------------|

E|---------------------------------------|
B|-8/12--15--13--15--10--10--12--13--7/8-|
G|---------------------------------------|
D|---------------------------------------|
A|---------------------------------------|
E|---------------------------------------|

There's a bit more after this, the little bit you will need
i have got in the tab for the third chorus:

E|--------------------------------------------14-15--14h1514------------------|
B|-8/12--15--15--15--15--15--15/17--15--17-15---------------17--15--17--15-12-|
G|----------------------------------------------------------------------------|
D|----------------------------------------------------------------------------|
A|----------------------------------------------------------------------------|
E|----------------------------------------------------------------------------|

E|------------------------------------|
B|-15--15--15/17--15--15----15----15--|fades of, keep playing this note
G|------------------------------------|
D|------------------------------------|
A|------------------------------------|
E|------------------------------------|
Добавлено: 30.03.2014
Другие материалы по этой песне:
  • Аккорды и текст

Страница создана 19.05.2012
http://primanota.ru/george-harrison/thats-the-way-it-goes-chords.htm
Привет, Гость.
Предлагаем пройти революционный курс по гитаре.
Подарок от PrimaNota.Ru, забирай!