PrimaNota.ru - самый крупный в мире бесплатный архив песенных текстов, аккордов, табулатур и нот


Genesis - Horizon - аккорды и текст, таба, видео

Регистрация Запомнить меня
Войти через:  Facebook Google Twitter Vk Yandex Mail.ru

Genesis - Horizon - аккорды и текст, таба, видео

Печатать
Просмотров: 119
Horizon
Genesis
		   HORIZONS 					STEVE HACKETT


Harmonique
 -----------------------------|-----------------------------|
 -----------------------12----|-----------------------------|
 ------------------12---------|---------12-------------12---|
 -------------12--------------|----------------12-----------|
 -----------------------------|---7-------------------------|
 ------7----------------------|-----------------------------|

 -----------------------------|-----------------------------|
 ------------------------12---|-----------------------------|
 ------------------12---------|---------12------------12----|
 -----------12----------------|----------------12-----------|
 -----------------------------|---7-------------------------|
 ----7------------------------|-----------------------------|

 ----------------------------||
 ---------------------12-----||
 --------------12------------||
 --------12------------------||
 ----------------------------||
 --7-------------------------||


Reprise
||-----------------------------|
||.----------------------------|
||------------------0----------|
||.----------------------2-----|
||--------0--------------------|
||---3-------------------------|


 ---------------------------|-------------------------------|
 --0------------0-----------|--------------------0----------|
 ---------------------0-----|--------------------------2----|
 -------0-------------------|-----------0-------------------|
 ---------------------------|-------------------------------|
 ---------------------------|---3---------------------------|


 ----------------------------|------------------------------|
 -----0---------------0------|------------------1-------0---|
 -------------------------0--|------------------2-----------|
 -----------0----------------|---------2--------------------|
 ----------------------------|---0--------------------------|
 ----------------------------|------------------------------|

 ----------------------------|------------------------------|
 --1---------------1---------|-------------------1------0---|
 ----------------------------|-------------------2----------|
 ---------2--------------0---|--------0---------------------|
 ----------------------------|------------------------------|
 --3-------------------------|---2--------------------------|
 |----------------------------|------------------0----------|
 |-----0----------------------|----0------------------------|
 |--------------------2-------|-----------------------------|
 |-----------0------------0---|----------0---------------0--|
 |----------------------------|-----------------------------|
 |-----3----------------------|--------------------------1--|

                                                      Reprise
 -----------------------------|----------------------------||
 ---3-------------------------|--------1---------------0--.||
 -----------------2-----------|--------2---------------0---||
 ----------0--------------0---|---------------------------.||
 -----------------------------|----------------------------||
 ---2-------------------------|----------------------------||




 -----0----------------2------|--3----------------5---------|
 ---------------3-------------|--3----------------5---------|
 ---------0-------------------|-------------------5---------|
 -------------------0------0--|-----------------------------|
 -----3-----------------------|--2----------------3---------|
 ---------------2-------------|-----------------------------|


 --7---------10-----|---2---------5-----|--3----------3-----|
 --8----------------|-----------------0-|------0---------0--|
 --7----------------|-------------------|-------------------|
 --0----------------|---1--2------3-----|-------------2-----|
 -------------------|-------------------|-------------------|
 -------------------|-------------------|--0----------------|

                |-P-|-P-|
 -----0-----7---5---3---2----|---0-----------------0--------|
 ----------------------------|------------0-----------------|
 -----0----------------------|--------------------------0---|
 ---------------0------------|------------------------------|
 ----------------------------|---3--------------------------|
 ----------------------------|------------------------------|


 ----------------------------|---0------3-------2------2----|
 ---0-------------------0----|---------------------2------2-|
 -------------------0--------|------------------------------|
 ---------2-2-P-4------------|------------------------------|
 ----------------------------|------------------1-----------|
 ----------------------------|------------------------------|


 ---2--------------3--------|----2---------------3------2---|
 ---------3-------------3---|----------3--------------------|
 ------------------0--------|--------------------0----------|
 ---------------------------|-------------------------------|
 ---2-----------------------|----2--------------------------|
 ---------------------------|-------------------------------|



 --2-----3-----2------3------|----2-----3---2-----3---------|
 -----2-----2------2------2--|-------3----3----3-----3------|
 ----------------------------|------------------------------|
 ----------------------------|------------------------------|
 --1-----------1-------------|----2---------2---------------|
 ----------------------------|------------------------------|


 -----2----------3-----------|---2---------------0--------|
 ----------2-----------2-----|-------------------------0--|
 ----------------------------|----------------------------|
 ----------------------------|----------------------------|
 -----1----------------------|----------------------------|
 ----------------------------|-------------------4--------|

 |--------------------------|-----------------------------|
 |-----1---------------0----|----1------------3-----------|
 |----------------2---------|-----------------------2-----|
 |---------2----------------|-----------------------------|
 |-----0--------------------|--------0--------------------|
 |--------------------------|----2------------------------|



  ---------------------------|--------------------0-------|
  ----0----------------------|---0---------------------0--|
  -------------0-------2-----|----------------------------|
  --------0------------------|----------------------------|
  ---------------------------|-------0--------------------|
  ----3----------------------|---1----------------4-------|


 |--------------------------|-----------------------------|
 |-----1---------------0----|----1------------3-----------|
 |----------------2---------|-----------------------2-----|
 |---------2----------------|-----------------------------|
 |-----0--------------------|--------0--------------------|
 |--------------------------|----2------------------------|


 ----------------------0-----|-------------2--------------|
 --0-----------0-------------|----3-----------------------|
 --------0---2---0--------0--|----------------------------|
 ----0-----------------------|----------0------0----------|
 ----------------------3-----|----------------------------|
 --3-------------------------|----2-----------------------|


 ----3-------5-----|---7---------|----5--------------------|
 ----3-------5-----|---8----HAR--|----5---------HAR--------|
 ------------------|---7-----7---|----5----------7---------|
 ------------------|---0---------|----0--------------------|
 ----2-------3-----|-------------|-------------------------|
 ------------------|-------------|-------------------------|

 ----3----------------------|------5-----------------------|
 ----3-------------HAR------|------5-----------------------|
 ----4--------------7-------|------5-----------------------|
 ----0----------------------|------0-----------------------|
 ---------------------------|------------------------------|
 ---------------------------|------------------------------|




 -----7------8------10------|----10----10------------------|
 ---------------------------|-10-----8------10-------------|
 ---------------------------|------------------------------|
 -----0---------------------|------------------------------|
 ---------------------------|------------------------------|
 ---------------------------|------------------------------|

Harmonique
 ||---------------------------|--------------------------|
 ||-------12------------------|--------------------------|
 ||-------------------7-------|-----------------7--------|
 ||---------------------------|-------7------------------|
 ||---------------------------|--------------------------|
 ||---------------------------|--------------------------|


 ---------------------------|--------------------------||
 ---------------------------|--------------------------||
 -------12-----------7------|-----------------7--------||
 ---------------------------|------7-------------------||
 ---------------------------|--------------------------||
 ---------------------------|--------------------------||


Harmonique
 ||-----------------------------|-----------------------------||
 ||.----------------------12----|----------------------------.||
 ||------------------12---------|---------12-------------12---||
 ||.------------12--------------|----------------12----------.||
 ||-----------------------------|---7-------------------------||
 ||------7----------------------|-----------------------------||

 |-----------------------------||
 |-----------------------12----||
 |------------------12---------||
 |-------------12--------------||
 |-----------------------------||
 |------7----------------------||



 ||-----------------------------|
 ||------------------0----------|
 ||-----------------------2-----|
 ||--------0--------------------|
 ||-----------------------------|
 ||---3-------------------------|


 ---------------------------|-------------------------------|
 --0------------0-----------|--------------------0----------|
 ---------------------0-----|--------------------------2----|
 -------0-------------------|-----------0-------------------|
 ---------------------------|-------------------------------|
 ---------------------------|---3---------------------------|




 ----------------------------|------------------------------|
 -----0---------------0------|------------------1-------0---|
 -------------------------0--|------------------2-----------|
 -----------0----------------|---------2--------------------|
 ----------------------------|---0--------------------------|
 ----------------------------|------------------------------|



 |----------------------------|------------------------------|
 |--1---------------1---------|-------------------1------0---|
 |----------------------------|-------------------2----------|
 |---------2------------------|--------0---------------------|
 |----------------------------|------------------------------|
 |--3----------------------0--|---2--------------------------|


Harmonique
 ||-----------------------------|-----------------------------|
 ||-----------------------12----|-----------------------------|
 ||------------------12---------|---------12-------------12---|
 ||-------------12--------------|----------------12-----------|
 ||-----------------------------|---7-------------------------|
 ||------7----------------------|-----------------------------|
  			       Accord
 |-----------------------------||   |----(3)-------||
 |-----------------------12----||   |----(3)-------||
 |------------------12---------||   |-----0-------||
 |-------------12--------------||   |-----0-------||
 |-----------------------------||   |-----2-------||
 |------7----------------------||   |-----3-------||     
Добавлено: 25.08.2013
Другие материалы по этой песне:
  • Аккорды и текст

Страница создана 25.08.2013
http://primanota.ru/genesis/horizon-chords.htm
Привет, Гость.
Предлагаем пройти революционный курс по гитаре.
Подарок от PrimaNota.Ru, забирай!