PrimaNota.ru - самый крупный в мире бесплатный архив песенных текстов, аккордов, табулатур и нот


Genesis - Cinema show1 - таба, видео

Регистрация Запомнить меня
Войти через:  Facebook Google Twitter Vk Yandex Mail.ru

Genesis - Cinema show1 - таба, видео

Печатать
Просмотров: 74


E-----17--15--17--15--17--15--17-|-----13--15--13--15--13--15--13-|-
B--------------------------------|--------------------------------|-
G---------15------15------15-----|---------15------15------15-----|-
D--0-----------------------------|--0-----------------------------|-
A--------------------------------|--------------------------------|-
E--------------------------------|--------------------------------|-

E-----13--12--13--12--13--12--13-|-----10--12--10--12--10--12--10-|-
B--------------------------------|--------------------------------|-
G---------12------12------12-----|---------12------12------12-----|-
D--0-----------------------------|--0-----------------------------|-
A--------------------------------|--------------------------------|-
E--------------------------------|--------------------------------|-

E-----12--10--12--10--12--10--12-|------8--10---8--10---8--10---8-|-
B--------------------------------|--------------------------------|-
G---------10------10------10-----|---------10------10------10-----|-
D--0-----------------------------|--0-----------------------------|-
A--------------------------------|--------------------------------|-
E--------------------------------|--------------------------------|-

E------8---7---8---7---8---7---8-|------5---7---5---7---5---7---5-|-
B--------------------------------|--------------------------------|-
G----------7-------7-------7-----|----------7-------7-------7-----|-
D--0-----------------------------|--0-----------------------------|-
A--------------------------------|--------------------------------|-
E--------------------------------|--------------------------------|-

E----------7-------7-------7-----|----------5-------5-------5-----|-
B------8-------8-------8-------8-|------8-------8-------8-------8-|-
G----------7-------7-------7-----|----------5-------5-------5-----|-
D--0-----------------------------|--0-----------------------------|-
A--------------------------------|--------------------------------|-
E--------------------------------|--------------------------------|-

E----------5-------5-------5-----|----------3-------3-------3-----|-
B------6-------6-------6-------6-|------6-------6-------6-------6-|-
G----------5-------5-------5-----|----------3-------3-------3-----|-
D--0-----------------------------|--0-----------------------------|-
A--------------------------------|--------------------------------|-
E--------------------------------|--------------------------------|-

E----------3-------3-------3-----|----------3-------3-------3-----|-
B------5-------5-------5-------5-|------6-------6-------6-------6-|-
G----------3-------3-------3-----|----------3-------3-------3-----|-
D--0-----------------------------|--0-----------------------------|-
A--------------------------------|--------------------------------|-
E--------------------------------|--------------------------------|-

E----------3-------3-------3-----||-
B------5-------5-------5-------5-||-
G----------3-------3-------3-----||-
D--0-----------------------------||-
A--------------------------------||-
E--------------------------------||-

Добавлено: 28.01.2014
Другие материалы по этой песне:
  • Аккорды и текст

Страница создана 28.01.2014
http://primanota.ru/genesis/cinema-show1-chords.htm
Привет, Гость.
Предлагаем пройти революционный курс по гитаре.
Подарок от PrimaNota.Ru, забирай!