PrimaNota.ru - самый крупный в мире бесплатный архив песенных текстов, аккордов, табулатур и нот


Gary Moore - The Loner - аккорды и текст, таба, бас-таба, видео

Регистрация Запомнить меня
Войти через:  Facebook Google Twitter Vk Yandex Mail.ru

Gary Moore - The Loner - аккорды и текст, таба, бас-таба, видео

Печатать
Просмотров: 3166
Авторы музыки: Neil Young
Авторы текста: Neil Young
The Loner
Gary Moore
---------------17----------17----------15--------------15-----------------
--------15----------------------------------------------------------------
------15--16>(18)-17>(18)17~--15>(16)15~--12-12-14>(16)~--14>(15)(15)~-(13)~-11-12h13~---15>(17)-14-12-----------------
-------------------------------------w--------------------12~-------------
--------------------------------------------------------------------------
--------------------------------------------------------------------------
end intro, main theme begins
 
--------------------------------------------------------------------------
--------------------------------------------------------------------------
--------------------------------------------------------------------------
---5-7-7>(8)-----7>(8)----3-5-5\(7)--------5-3-5-----5~--5-7-7>(8)(7)(7)(off)----------
---------------------------h5--------------------5------------------------
----------------------------w---------------------------------------------

--------------------------------------------------------------------3~----
---8-10-10>(11)~------11~---6-8-8>(9)(7)(6)(11)---------10~----6-8>(10)(7)------------5>(6)(6)(11)---8>(9)(7)-----------------------------------------11-10
-h5p(3)~--h3p(2)h(3)---w-----3p(2)~---------------------------------------
--w--------w------------------w-------------------------------------------
--------------------------------------------------------------------------
--------------------------------------------------------------------------

-----------------------------9-9>(10)(11)
-8----------------------8-11--------------11-10-8----8--------------------
---10---------------------------------------------10----------------------
------10>(11)(11)(14)~-17p15p14-15-15>(16)-15>(16)--
-11h13p11\(10)------------------------------------------------------------
--------------12-14-14>(15)(16)(18)------------17----13-15-17-------------
--------------14>(15)--------------13>(14)(16)(18)-19>(20)-20>(21)
------------------16-18-18>(19)-------------------------------------------
-15h17p15\(14)-15---------------14>(15)(22)~--20>(21)(22)(18)---------17-15---15h17-17>(18)(21)(21)(19)
--------------------------17>(19)(11)
-----|5---5>(6)(6)(6)----------------------------
-----|-------------|--5-7-7>(8)----------------8-5-5~---10>(11)-----------
-----|-------------|-5----------------------------------------------------
-----|-------------|------------------------------------------------------


-----------------------|--------------------------------------------------
--------------8>(9)(11)~------11>(12)~---11-11-11-----11----
-----------------------|-10-12---------10-12---------12--------12-10--12p10
-10>(11)(13)~(13)(13)(13)(13)(12)~---------------------------12-10h(12)h(15)--------
-(sorry, im---|-----------------------------------------------w-----------
---lazy)------|-----------------------------------------------------------
--------------|-----------------------------------------------------------

--------------------------------------------------------------------------
-------------15-18-18>(19)~------------15-18-20>(21)----------------------
--------15-17--------------------15-17------------------------------------
--15-17---------------------15-17-----------------------------------------
--------------------------------------------------------------------------
--------------------------------------------------------------------------
Добавлено: 01.11.2013
Другие материалы по этой песне:

Страница создана 03.03.2012
http://primanota.ru/gary-moore/the-loner-chords.htm
Привет, Гость.
Предлагаем пройти революционный курс по гитаре.
Подарок от PrimaNota.Ru, забирай!