PrimaNota.ru - самый крупный в мире бесплатный архив песенных текстов, аккордов, табулатур и нот


Gary Moore - Teenage Idol - текст песни, таба, видео

Регистрация Запомнить меня
Войти через:  Facebook Google Twitter Vk Yandex Mail.ru

Gary Moore - Teenage Idol - текст песни, таба, видео

Печатать
Просмотров: 229
Уроки эстрадного вокала в Санкт-Петербурге
Pista 1
      Q     Q      Q      Q        Q      Q      Q     Q
E||----------------------------|----------------------------|
B||--------12h----15p----12----|--11h----14p----11----------|
G||--15------------------------|----------------------14----|
D||----------------------------|----------------------------|
A||----------------------------|----------------------------|
E||----------------------------|----------------------------|


   Q      Q      Q     Q        Q      Q      Q     Q
----------------------------|----------------------------|
--12h----15p----12----------|--11h----14p----11----------|
----------------------14----|----------------------15----|
----------------------------|----------------------------|
----------------------------|----------------------------|
----------------------------|----------------------------|


   Q      Q      Q      Q        Q     Q      Q      Q
-----------------------------|----------------------------|
--12h----15p----12s----11----|--------11h----14p----11----|
-----------------------------|--14------------------------|
-----------------------------|----------------------------|
-----------------------------|----------------------------|
-----------------------------|----------------------------|


   Q       Q       Q        Q     Q    Q     Q       Q     Q    Q     Q
------------------15-----|--3p----0---------------|------------------------|
--15----<>15b~----15b----|-------------3p----0----|------------------------|
-------------------------|------------------------|--2p----0---------------|
-------------------------|------------------------|-------------4p----0----|
-------------------------|------------------------|------------------------|
-------------------------|------------------------|------------------------|


  Q     Q    Q     Q       Q     Q    Q    Q       Q    Q    Q    Q
------------------------|-----------------------|----------------------|
------------------------|-----------------------|----------------------|
------------------------|-----------------------|----------------------|
--2p----0---------------|-----------------------|----------------------|
-------------3p----0----|--2p----0---------7----|--0----2----0---------|
------------------------|-------------3---------|-----------------5----|


       tr
  Q    Q         Q      Q       Q    Q    Q     Q       Q    Q    Q    Q
-----------------------------|-----------------------|----------------------|
-----------------------------|-----------------------|----------------------|
---------------/12-----\L----|-----------------------|----------------------|
-----------------------------|-----------------------|----------------------|
--7----5(7)------------------|-----------------10----|--7----7----5----7----|
-----------------------------|--5----6----7----------|----------------------|


                                                tr    While it trill with his right 
hand, slide a finger of his left hand toward the neck to produce harmonics.
  Q    Q    Q    Q       Q    Q    Q            W
----------------------|----------------------|----------------------||
----------------------|------------8---------|----------------------||
----------------------|--7----9--------------|----------------------||
--5----7----8----9----|----------------------|--2(0)----------------||
----------------------|----------------------|----------------------||
----------------------|----------------------|----------------------||




Duration Legend
---------------
W - whole
H - half
Q - quarter
E - 8th
S - 16th
T - 32nd
X - 64th
. - note dotted
|-n-|  - n-tuplets


Tablature Legend
----------------
L - tied note
x - dead note
g - grace note
(n) - ghost note
> - accentuded note
NH - natural harmonic
AH - artificial harmonic
TH - tapped harmonic
SH - semi harmonic
PH - pitch harmonic
h - hammer on
p - pull off
b - bend
br - bendRelease
pb - preBend
pbr - preBendRelease
brb - bendReleaseBend
\n/ - tremolo bar dip
\n - tremolo bar dive
-/n - tremolo bar Release up
/n\ - tremolo bar inverted dip
/n - tremolo bar return
-\n - tremolo bar Release down
S - shift slide
s - legato slide
/ -  slide into from below or out of upwards
\ -  slide into from above or out of downwards
~ - vibrato
W - wide vibrato
tr - trill
TP - tremolo picking
T - tapping
S - slap
P - pop
< - fade in
^ - brush up
v - brush down
Добавлено: 17.03.2012
Другие материалы по этой песне:

Страница создана 21.02.2012
http://primanota.ru/gary-moore/teenage-idol-chords.htm
Привет, Гость.
Предлагаем пройти революционный курс по гитаре.
Подарок от PrimaNota.Ru, забирай!