PrimaNota.ru - самый крупный в мире бесплатный архив песенных текстов, аккордов, табулатур и нот


Gary Moore - Stop Messin Around - текст песни, бас-таба, видео

Регистрация Запомнить меня
Войти через:  Facebook Google Twitter Vk Yandex Mail.ru

Gary Moore - Stop Messin Around - текст песни, бас-таба, видео

Печатать
Просмотров: 95
Title:  Stop messin' around
Author: Gary Moore
Key:    C
Tuning: standard
Tabbed by: Diego Damo


Gary Moore's "Stop messing around" is a really nice piece of blues,which is 
very very simple to play (like all the riff tabbed by myself). 
Pay attention to stepping down from C to F and you're done. There's no need
to say more,in fact is really a song for beginners to practice with 8th notes.

Enjoy

Complains: damo.diego_AT_gmail.com


G|---------------------------------------------------------------------------|
D|---------------------------------------------------------------------------|
A|3-3-3-3-3-3-3-3-3-3-3-3-3-3-3-3-3-3-3-3-3-3-3-3-3-3-3-3-3-3-3-3------------|
E|---------------------------------------------------------------------------|

G|---------------------------------------------------------------------------|
D|---------------------------------------------------------------------------|
A|---------------------------------------------------------------------------|
E|1-1-1-1-1-1-1-1-1-1-1-1-1-1-1-1--------------------------------------------|

G|---------------------------------------------------------------------------|
D|---------------------------------------------------------------------------|
A|3-3-3-3-3-3-3-3-3-3-3-3-3-3-3-3--------------------------------------------|
E|---------------------------------------------------------------------------|

G|---------------------------------------------------------------------------|
D|---------------------------------------------------------------------------|
A|--------------------------------3-3-1-1-0-0--------------------------------|
E|3-3-3-3-3-3-3-3-1-1-1-1-1-1-1-1-------------4-4s-----1-2-3-----------------|
Добавлено: 08.05.2016
Другие материалы по этой песне:

Страница создана 23.03.2012
http://primanota.ru/gary-moore/stop-messin-around-chords.htm
Привет, Гость.
Предлагаем пройти революционный курс по гитаре.
Подарок от PrimaNota.Ru, забирай!