PrimaNota.ru - самый крупный в мире бесплатный архив песенных текстов, аккордов, табулатур и нот


Garbage - Man On A Wire - текст песни, таба, видео

Регистрация Запомнить меня
Войти через:  Facebook Google Twitter Vk Yandex Mail.ru

Garbage - Man On A Wire - текст песни, таба, видео

Печатать
Просмотров: 52
Song: Man On A Wire
Band: Garbage
Album: Not Your Kind Of People
Year: 2012
Tabber: beanger80@hotmail.com
Tuning: 1/2 step down



Riff A (0:00)

Eb-------------------------|
Bb-------------------------|
Gb--------------9--9-8-----|
Db--6---6-9---9-9--9-8--4--|
Ab--6---6-9---9-7--7-6--4--|
Eb--4---4-7---7---------2--|



Riff B (0:34)

Eb------------------------------|
Bb------------------------------|
Gb--/13-13-13-------------------|
Db-------------12-12-12--13-13--|
Ab------------------------------|
Eb------------------------------|



Riff C (0:34)

Eb-----------|-----------|-----------|-----------|
Bb-----------|-----------|-----------|-----------|
Gb-----------|-----------|-----------|-----------|
Db--2-2-2-2--|--6-6-6-6--|--4-4-4-4--|--2-2-2-2--|
Ab--2-2-2-2--|--6-6-6-6--|--4-4-4-4--|--2-2-2-2--|
Eb--0-0-0-0--|--4-4-4-4--|--2-2-2-2--|--0-0-0-0--|



0:48 Riff A

1:23 Riff B + Riff C



Riff D (1:50)

Eb---------------------------|
Bb---------------------------|
Gb--13-13-13-13-13-13-13-13--|
Db--13-13-13-13-13-13-13-13--|
Ab--11-11-11-11-11-11-11-11--|
Eb---------------------------|



Bass riff (1:53)

Gb---------------------------------------------------|
Db---------------------------------------------------|
Ab--13-13-13-13-13-13-13-13-11-14-14-14-13-13-13-13--|
Eb---------------------------------------------------|

Gb-----------------------------------|
Db-----------------------------------|
Ab--7-7-7-7-7-7-7-7-9-9-9-9-7-7-7-7--|
Eb-----------------------------------|



Riff E (2:07)

Eb--13------------|--13-------|
Bb-----12b---11b--|------12b--|
Gb----------------|-----------|
Db----------------|-----------|
Ab----------------|-----------|
Eb----------------|-----------|



2:20 Riff A + Riff D

2:34 Riff B + Riff C
Добавлено: 14.11.2015
Другие материалы по этой песне:
  • Аккорды и текст

Страница создана 03.02.2014
http://primanota.ru/garbage/man-on-a-wire-chords.htm
Привет, Гость.
Предлагаем пройти революционный курс по гитаре.
Подарок от PrimaNota.Ru, забирай!