PrimaNota.ru - самый крупный в мире бесплатный архив песенных текстов, аккордов, табулатур и нот


Gallagher, Rory - Tatooed Lady - таба, видео

Регистрация Запомнить меня
Войти через:  Facebook Google Twitter Vk Yandex Mail.ru

Gallagher, Rory - Tatooed Lady - таба, видео

Печатать
Просмотров: 80
Tattoo'd Lady, bearded baby they're my family,when I was lonely something told me where 
could always be
E|----X--|--0---|----------------|--------0----0--0---3-0---|----------------|--------|-3--x-----3-----|
B|----X--|--0---|--0---1--1--3---|----3---0----0--0-0-0-0--0|-0-------0--1---|-1---3--|-0--x--0--0--0--|
G|----0--|--0---|--0---0--0--2---|----2---0-----------0-0--0|-0-0-----0--0---|-0---2--|-0--x--0--0--0--|
D|-------|--2---|--2---2--2--0---|----0---2----------------2|-2-2---v-2--2---|-2---0--|-------2-----2--|
A|-------|--2---|--2---3--3------|--------2----------------2|---2-2---2--3---|-3------|-------------2--|
E|--0----|--0---|--0-------------|--------0-----------------|---------0------|--------|----------------|

where I could push the penny If you've got any,you'll meet me down at the shooting gallery,
yes, I'm a fairground baby,  wonder what made me fall for the pearly queen
E|------|-------|--------|-----0--|---------------|-------|---------------|
B|-0--1-|--1--3-|---3-0--|--X--0--|-0--1---1--3---|--0----|---------------|
G|-0--0-|--0--2-|---2-0--|--X--0--|-0--0---0--2---|--3--0-|--0-0-0-0-0-0--|
D|-2--2-|--2--0-|---0-2--|--X--2--|-2--2---2--0---|--2--2-|--2-2-2-2-2-2--|
A|-2--3-|--3----|-----2--|-----2--|-2--3---3------|-----2-|--2-2-2-2-2-2--|
E|-0----|-------|-----0--|-----0--|---------------|-----0-|--0-0-0-0-0-0--|

Chorus
Spent my youth under canvas roof as I roamed from town to town,I'm not foolin' when I 
I got no schoolin'
E|------------------|-------------------------7--5-|---------------------|-------------------|
B|------------------|-------------------------7--5-|-9-9-9-9-------------|-------------------|
G|------------------|-------------------------8--6-|-9-9-9-9-9-9-9-9-9-X-|-------------------|
D|------------------|-------------------------9--7-|-9-9-9-9-9-9-9-9-9-X-|-------------------|
A|-7-7-9-7-10-7-9-7-|-2-2-4-2-5-2-4-2-2-2-4-2-9--7-|-7-7-7-7-7-7-7-7-7-X-|-7-7-9-7-10-7-9-7--|
E|-5-5-5-5-5--5-5-5-|-0-0-0-0-0-0-0-0-0-0-0-0-9--5-|---------------------|-5-5-5-5-5--5-5-5--|

 never liked the school bell sound,from inside the caravan, I hear the fairground band 
good as they can be
E|-----------------------------------|-----------------|-----4--4--|------------------|------4---4--|
B|-------------------5-5-5-5-5-5-5-5-|-4-4-4-4-4-4-4-4-|-5---5--4--|--4-4-4-4-4-4-4-4-|--5---5---4--|
G|-------------------6-6-6-6-6-6-6-6-|-4-4-4-4-4-4-4-4-|-6---6--4--|--4-4-4-4-4-4-4-4-|--6---6---4--|
D|-------------------6-6-6-6-6-6-6-6-|-4-4-4-4-4-4-4-4-|-6---6--6--|--4-4-4-4-4-4-4-4-|--6---6---6--|
A|-2-2-4-2-5-2-4-2---4-4-4-4-4-4-4-4-|-2-2-2-2-2-2-2-2-|-7---4--6--|--2-2-2-2-2-2-2-2-|--7---4---6--|
E|-0-0-0-0-0-0-0-0-------------------|-----------------|-5------4--|------------------|--5-------4--|

                              Keyboard Solo             v
you know I can't be found but if you look around
tomorrow we'll be gone by dawn, Oh yeah
E|------|----------------0-|-----------------0--|----0---------------------0---3--x-----3----0-|
B|-X----|----------------0-|--0-1---1-3---3--0--|-x--0---0--1----1--3---3--0---0--x--0--0----0-|
G|-X----|-4-4-4-4-4-4-X--0-|--0-0---0-2---2--0--|-x--0---0--0----0--2---2--0---0--x--0--0----0-|
D|-X--4-|-4-4-4-4-4-4-x--2-|--2-2---2-0---0--2--|-x--2---2--2----2--0---0--2---------2-------2-|
A|-X--2-|-2-2-2-2-2-2----2-|--2-3---3--------2--|----2---2--3----3---------2-----------------2-|
E|------|----------------0-|--0--------------0--|----0---0-----------------0-----------------0-|


Solo
E|-12----12----12----12----12----12----12----12----12----12----12----12----12----12----12-----12/----12------|
B|-15b17-15b17-15b17-15b17-15b17-15b17-15B17-15B17-15B17-15B17-15B17-15b17-15b17-15b17-15b17--15/------------|
G|-----------------------------------------------------------------------------------------------------------|
D|-----------------------------------------------------------------------------------------------------------|
A|-----------------------------------------------------------------------------------------------------------|
E|-----------------------------------------------------------------------------------------------------------|

E|--14B16-12-----14---12-14-12----------|----------------------------------------|
B|----------14-12-------------14-12-----|-----------12-14-12-15-14-12---15-14-12-|
G|----------------------------------14--|-13--13-14-------------------13---------|
D|--------------------------------------|----------------------------------------|
A|--------------------------------------|----------------------------------------|
E|--------------------------------------|----------------------------------------|


E|----------------------------------------------------------|------------------------|---------------------|
B|-15-14-12--15-15-14-12--15-15-14-12-15-14-12-----14-12----|------------------------|---------------------|
G|---------13-----------13--------------------14-13------13-|--13----13-13-13-13-13/-|-----7--9-9B11-9B11--|
D|----------------------------------------------------------|-----14-14-14-14-14-14/-|-7-9-----------------|
A|----------------------------------------------------------|------------------------|---------------------|
E|----------------------------------------------------------|------------------------|---------------------|

E|----------------------------|------------------------------|-----------------------------|--------------------------------|
B|-----------10---------------|-X-10H12R10---10--------------|-----------------------------|--------------------------------|
G|-9B11-9B11----9B11R9------X-|-----------11---11-9--9-11-9--|-8-9-11-9-8H9R8--------------|--------------------------------|
D|------------------------X-X-|--------------------11------11|----------------11-9-11-9----|------9-----9-----9-----9-----9-|
A|----------------------X-X-X-|------------------------------|--------------------------11-|-9H11--9H11---9H11--9H11-9H11---|
E|----------------------X-X---|------------------------------|-----------------------------|--------------------------------|

E|---------------------|--------------------------------------------------------------|------------------------------------------|
B|---------------------|---------------10-9-10-9H10R9---------------------------------|------------------------------------------|
G|---------------------|-9-11--9H11R9------------------11-9-8H9R8---------------------|-11----11----11----11----11----11---------|
D|---------------------|-------------11---------------------------11-9H11R9----9-11B13|-11B13-11B13-11B13-11B13-11B13-11B13R11-9-|
A|---------------------|----------------------------------------------------11--------|------------------------------------------|
E|-7-7-7-7-7-7-7-7-7-7-|--------------------------------------------------------------|------------------------------------------|

E|---------------------|
B|-----------------0---|
G|-----------------0---|
D|------9-----X----2---|
A|--------9---X----2---|
E|-7-7--7-7---X----0---|


Verse Two
Now hear it on the loud speaker say,the fire eater is a real fine sight to see,
you know he's a death cheater, some kind of central heater,be sure to save a seat for me
E|-------------0-|------0--|--------|--------|----0--|------0---------|--------|
B|-0--1----3---0-|--x---0--|--0---1-|--1--3--|--3-0--|--x---0----0--1-|---1--3-|
G|-0--2----2---0-|--x---0--|--0---0-|--0--2--|--2-0--|--x---0----0--0-|---0--2-|
D|-2--0----0---2-|--x---2--|--2---2-|--2--0--|--0-2--|--x---2----2--2-|---2--0-|
A|-2--3--------2-|------2--|--2---3-|--3-----|----2--|------2----2--3-|---3----|
E|-------------0-|------0--|--0-----|--------|----0--|------0----0----|--------|

let me tell you 'bout wicked Sadie, she's no baby,
the law came and tried to close her side show down
but soon she had the D.A. cheering,the police chief wearing her garter for a crown
E|------0--|-----0--------|--------|------0------|
B|--3---0--|--x--0---0--1-|--1--3--|--3---0---x--|
G|--2---0--|--x--0---0--0-|--0--2--|--2---0---x--|
D|--0---2--|--x--2---2--2-|--2--0--|--0---2---x--|
A|------2--|-----2---2--3-|--3-----|------2---x--|
E|------0--|-----0---0----|--------|------0---x--|


Chorus

E|------------------|-----------------|-----------7--5--|--------------------------------------------------------|
B|------------------|-----------------|-----------7--5--|--------------------------------------------------------|
G|------------------|-----------------|-----------8--6--|-14B16-14B16-14B16-14B16-14B16-14B16-14B16-14B16--------|
D|------------------|-----------------|-----------9--7--|---------------------------------------------------14/--|
A|-7-7-9-7-10-7-9-7-|-2-2-4-2-5-2-4-2-|-2-2-4-2---9--7--|--------------------------------------------------------|
E|-5-5-5-5-5--5-5-5-|-0-0-0-0-0-0-0-0-|-0-0-0-0---7--5--|--------------------------------------------------------|


E|-------------------|-----------------|-----------------|-----------------|---|-4---4------|
B|-------------------|-----------------|-5-5-5-5-5-5-5-5-|------10-12------|-5-|-5---4--4---|
G|-------------------|-----------------|-6-6-6-6-6-6-6-6-|-----------------|-6-|-6---4--4---|
D|-------------------|-----------------|-6-6-6-6-6-6-6-6-|-14b16------14b16|-7-|-6---6--4---|
A|-7-7-9-7--10-7-9-7-|-2-2-4-2-5-2-4-2-|-4-4-4-4-4-4-4-4-|-----------------|-7-|-4---6--2---|
E|-5-5-5-5--5--5-5-5-|-0-0-0-0-0-0-0-0-|-----------------|-----------------|-5-|-----4------|

                   Repeat verse one
E|-----------------|----4--4--|-------------------|-------|------|----0--|---0--|-------|----------0-------0--|
B|-4-4-4-4-4-4-4-4-|-5--5--4--|-4-4-4-4-4-4--0----|-0---1-|-1--3-|-3--0--|-x-0--|--0--1-|-1--3--3--0----x--0--|
G|-4-4-4-4-4-4-4-4-|-6--5--4--|-4-4-4-4-4-4--0----|-0---0-|-0--2-|-2--0--|-x-0--|--0--0-|-0--2--2--0----x--0--|
D|-4-4-4-4-4-4-4-4-|-7--6--6--|-4-4-4-4-4-4--2----|-2---2-|-2--0-|-0--2--|-x-2--|--2--2-|-2--0--0--2----x--2--|
A|-2-2-2-2-2-2-2-2-|-7--4--6--|-2-2-2-2-2-2--2----|-2---3-|-3----|----2--|---2--|--2--3-|-3--------2-------2--|
E|-----------------|-5-----4--|--------------0----|-0-----|------|----0--|---0--|--0----|----------0-------0--|


2nd Solo

E|-12----12----12----12----12----12----12----12----12----12----12----12----12----12----12----12----12----12----12----12----|
B|-15B17-15B17-15B17-15B17-15B17-15B17-15B17-15B17-15B17-15B17-15B17-15B17-15B17-15B17-15B17-15B17-15B17-15B17-15B17-15B17-|
G|-------------------------------------------------------------------------------------------------------------------------|
D|-------------------------------------------------------------------------------------------------------------------------|
A|-------------------------------------------------------------------------------------------------------------------------|
E|-------------------------------------------------------------------------------------------------------------------------|

E|-12----12----12----12----12----12----12----12----12----12----|-12----12----12----12----12----12----12----12----12---------|
B|-15B17-15B17-15B17-15B17-15B17-15B17-15B17-15B17-15B17-15B17-|-15B17-15B17-15B17-15B17-15B17-15B17-15B17-15B17-17--12--12-|
G|-------------------------------------------------------------|------------------------------------------------------------|
D|-------------------------------------------------------------|------------------------------------------------------------|
A|-------------------------------------------------------------|------------------------------------------------------------|
E|-------------------------------------------------------------|------------------------------------------------------------|


E|-----------------------------------------|---------------------------------------|
B|-15-12-15-12-15-12-15-12-15-12--12-14-15-|--12H15R12-----------------------------|
G|------------------------------14---------|-----------14--12---11-12-12-----------|
D|-----------------------------------------|-----------------------------14--------|
A|-----------------------------------------|---------------------------------------|
E|-----------------------------------------|---------------------------------------|


E|------------------------------------------------|----------------------------------------------------------------------|
B|------------------------------------------------|----------------------------------------------------------------------|
G|---11-12-14--12-11----11-12-14-12-11---11-12-14-|-14-14-12-11-14-14-12-11-14-14-12----11-12-14-11-12-------------------|
D|-14----------------14---------------14----------|----------------------------------14----------------12-11-------------|
A|------------------------------------------------|----------------------------------------------------------------------|
E|------------------------------------------------|----------------------------------------------------------------------|

E|-----------------------------------------|---------------------------------------------------------------------|
B|------------12---------------------------|---------------------------------------------------------------------|
G|--------12--12-12------------------------|---------------------------------------------------------------------|
D|-14--12-14-----14---12H14R12-------------|---------12-14---------12-14---------12-14-----14---------12-14------|
A|-14---------------------------14-12---12-|---12-14---------12-14---------12-14---------14------12-14-----------|
E|------------------------------------15---|-15------------15------------15------------15------15----------------|


E|--------------------------|--------------------------------------------------------------------------|
B|--------------------------|--------------------------------------------------------------------------|
G|-12----12----12-12--------|-14B16-14B16-14B16-14B16-14B16-14B16-14B16-12-14B16-12-9------------------|
D|-12-12-12-12-12-12-12\X---|--------------------------------------------------------------------------|
A|--------------------------|--------------------------------------------------------------------------|
E|--------------------------|--------------------------------------------------------------------------|


E|----------------------------------------------------------|---------------------------------------------------------|
B|----------------------------------------------------------|---------------------------------------------------------|
G|-14B16-14B16-14B16-14B16-14B16-14B16-14B16-12-14B16-12-9--|-12-14-14B16-B16-B16-B16-B16-B16-B16-B16-B16-B16-B16-B16-|
D|----------------------------------------------------------|---------------------------------------------------------|
A|----------------------------------------------------------|---------------------------------------------------------|
E|----------------------------------------------------------|---------------------------------------------------------|

E|------------------------------------------------------------------------------------------------|
B|------------------------------------------------------------------------------------------------|
G|-16-16-16-16-16-16-16-16-16-16-16-16-16-\-0-14-0-12-0-14-0-12-0-14-0-12-0-14-0-12-0-14--14B16---|
D|------------------------------------------------------------------------------------------------|
A|------------------------------------------------------------------------------------------------|
E|------------------------------------------------------------------------------------------------|

E|----------------------------------|---------------------------------------------------------------0--|
B|-15--15---------------------------|---------------------------------------------------------------X--|
G|-14--14B16R14--12-14-12----12-11--|-12-11----12-11----12-11----12-11-12H14--14-12-11H12R11-----------|
D|------------------------14--------|-------14-------14-------14------------------------------14-14----|
A|----------------------------------|------------------------------------------------------------------|
E|----------------------------------|------------------------------------------------------------------|


E|-12-0-0-9-0-0-12-0-0-9-0-0-12/5--0-0-5-0-0-5-0-0-5-0-0-5-0-0-5-0-5-0-5-0-5-0-5-0-5-0-5-5-0-5-0-5-0-5-0-5-0--|
B|------------------------------------------------------------------------------------------------------------|
G|------------------------------------------------------------------------------------------------------------|
D|------------------------------------------------------------------------------------------------------------|
A|------------------------------------------------------------------------------------------------------------|
E|------------------------------------------------------------------------------------------------------------|

E|-7-0-10-0-7-0-10-0-7-0-10-0-7-0-10-0-7-0-10-0-7-0-10-0-7-0-10-0-7-0-10-0-7-0-10-0-7-0-10-0-7-0-10-0-7-0------|
B|--------------------------------------------------------------------------------------------------------10B12|
G|-------------------------------------------------------------------------------------------------------------|
D|-------------------------------------------------------------------------------------------------------------|
A|-------------------------------------------------------------------------------------------------------------|
E|-------------------------------------------------------------------------------------------------------------|

E|-7---------------|---------------0--|-0/0-0-0-0-0-0-0-0-0/0--0-0-0-0-0-0-0-0-0-0-0-0-0-0-0-0-0----|
B|---10-8-10-8-7---|------------------|-3/5-5-5-5-5-5-5-5-3/5--5-5-5-5-5-5-5-5-3-3-5-5-7-7-8-8-10---|
G|---------------7-|-9--9-7---7B9--X--|-------------------------------------------------------------|
D|-----------------|--------9------X--|-------------------------------------------------------------|
A|-----------------|------------------|-------------------------------------------------------------|
E|-----------------|------------------|-------------------------------------------------------------|


E|-0-0-0-0-0-0-0-0-0-0-0-0-0-0-0-0--|-0-0-0-0-0-0-0-0-0-0-0-0-0-0-0-0-0-0-0-0--0-0--0-0-0-0-0-0-0-0-0-0----|
B|-5-5-5-3-3-3-5-5-5-7-7-7-8---7----|-5-----3---3-5-5---7---7-8---7---8---8-10---10-8-8-8-7-7-7-5---3------|
G|----------------------------------|----------------------------------------------------------------------|
D|----------------------------------|----------------------------------------------------------------------|
A|----------------------------------|----------------------------------------------------------------------|
E|----------------------------------|----------------------------------------------------------------------|


E|---0-0-0-0-0-0-0-0-0-0-0-0-0-0--|---0-0-0-0-0-0--0--|--------------------------------|
B|-3-5-5-5-5-5-5-5-5-5-5-5-5-5-5--|-3-5-5-5-5-5-5--5/-|--------------------------------|
G|--------------------------------|-------------------|----------12----14-14-12B13-----|
D|--------------------------------|-------------------|-14-14-14-12-14-14-14-------14--|
A|--------------------------------|-------------------|--------------------------------|
E|--------------------------------|-------------------|--------------------------------|


E|-------------------------------------|---------------------------------------------------------------------------|
B|-------------------------------------|-15-12----15-12---15-12----15-12---15-12-15-12-15-12----12-----------------|
G|----------12----14-14-14B16R14-12----|-------14-------14------14-------14------------------14----14-12-11-12-11--|
D|-14-14-14-12-14-14-14-------------14-|---------------------------------------------------------------------------|
A|-------------------------------------|---------------------------------------------------------------------------|
E|-------------------------------------|---------------------------------------------------------------------------|

E|-------------------------------------------------------------------------------|
B|-------------------------------------------------------------------------------|
G|-12-11---12-11----12-11----12-11----12-11-12-11--------------------------12----|
D|-------14------14-------14-------14-------------14-12-14-12----------12--12/---|
A|------------------------------------------------------------14-12-14-----------|
E|-------------------------------------------------------------------------------|


E|-------------------------------|---------------------------------------------------------------------------------------|
B|-------------------------------|-----------------------------------------------------12-12-12-12-12--------------------|
G|-14B16R14-14-12-14---12-11-----|-----------------------------12-11-12-11----------14----------------11-12-14-12-11-11--|
D|----------------------------14-|-14-14-14-14-14-14--14-14-14-------------14-14-12--------------------------------------|
A|-------------------------------|---------------------------------------------------------------------------------------|
E|-------------------------------|---------------------------------------------------------------------------------------|

E|------------------------------------|-------------------------------------------------|------|-----|
B|------------------------------------|-------------------------------------------------|------|-----|
G|---------------------------------9--|-------------------------------------------------|------|-0---|
D|-14-14-12-12---------------------9--|-7-5-7-5-7-5-7-5-7-5-7-5-7-5-7-5-7-5-7-5-7-5-7-5-|-7R5--|-9---|
A|-------------12-14-12----12-14---7--|-------------------------------------------------|------|-7---|
E|----------------------15------------|-------------------------------------------------|------|-0---|
Добавлено: 24.11.2013
Другие материалы по этой песне:
  • Аккорды и текст

Страница создана 24.11.2013
http://primanota.ru/gallagher-rory/tatooed-lady-chords.htm
Привет, Гость.
Предлагаем пройти революционный курс по гитаре.
Подарок от PrimaNota.Ru, забирай!