PrimaNota.ru - самый крупный в мире бесплатный архив песенных текстов, аккордов, табулатур и нот


Gallagher, Rory - Out On the Western Plain - таба, видео

Регистрация Запомнить меня
Войти через:  Facebook Google Twitter Vk Yandex Mail.ru

Gallagher, Rory - Out On the Western Plain - таба, видео

Печатать
Просмотров: 73
OUT IN THE WESTERN PLAIN
As recorded by Rory Gallagher
(From the 1975 Album AGAINST THE GRAIN)

Words and Music by Huddie Ledbetter, John A. Lomax & Alan Lomax
Arranged by Rory Gallagher

Gtr I (D A D G A D) - 'Rory Gallagher - acoustic'
Gtr II (D A D G B E) - 'Rory Gallagher - slide electric'


Intro
  Rubato Q=85
 4/4
  Gtr I
                          |-3-|
  S S E E a E a E a E   a E E E E E E E     E. S    Q..   S S S E E a E
|-----5-7-5h7-5h7-5h7-:-5h7-5---5-7-5-3b3.5-0----:----------0h3-5-7-5h7-:
|-5h8-----------------:-------8------------------:----------------------:
|-5-------------------:--------------------------:-^2-------------------:
|-0-------------------:--------------------------:-^0-----0-------------:
|---------------------:--------------------------:-^0-------------------:
|---------------------:--------------------------:-^x-------------------:


                  |-3-|                           |-3-|
  a  E  a  E  E E E E E  E   E    +H      S S E E S S S
|-5h(7)-5h(7)-5p3-5-7-5-(5)-(5)-:-(5)-------------------:
|------------------------8---5--:-(5)-------------------:
|-------------------------------:--------(0)----0-2p0---:
|----0-----0--0---0-0-0-(0)-(0)-:-(0)-----0h2h3-------3-:
|-------------------------------:-----------------------:
|-------------------------------:-----------------------:


        ~
  |-3-|        |--3--|
  E E E H    a S S E E   +Q    H.
|----------------------:------!0-----||
|----------------------:------!0-----||
|-0--------------------:------!2-----||
|---0--------0h2p0---0-:-(0)--!0-----||
|-----0-3----------3---:------!0-----||
|----------------------:------!0-----||


 Verse 1
  A Tempo Q=95
                                                PM
  E E E E E S S S S S S   E S S E S S S S S S S S S S
|---0---------0-------0-|-----0-----0-------0-------0-|
|-----------------------|-----------------------0-----|
|-2---------------2-----|---------------2-------------|
|---0---0---0-------0---|---0-----0-------0-------0---|
|-----------------------|-----------------------------|
|-0---0---0-----0-------|-0-----0-----0-------0-------|


  S S S S E S S S S S S S S S S
|-------0-----0-------0-------0---|
|---------------------------------|
|---2-------------2-------2-------|
|-----0-----0-------0-------0-----|
|---------------------------------|
|-0-------0-----0-------0---------|


                              PM
  S S S S E S S S S S S S S S S
|-------0-----0-------0-------0-|
|-------------------------------|
|---2-------------2-------2-----|
|-----0-----0-------0-------0---|
|-------------------------------|
|-0-------0-----0-------0-------|


                           3/4
  E S S S S S S E E S S E   S E. S S S S E  S  S
|-----------------0-------|------------0---!0----|
|-----0---0---0-----------|---0----0-----0-!0-^0-|
|---0-------0---------2---|----------------!0-^0-|
|-----------------0-----0-|----------0-----!0-^0-|
|-3-----2-----------------|-3----2-------0-!0-^0-|
|---------------0---0-----|----------------!0-^0-|


 4/4
  E E E S S E E S S S S   E E S S S S S S S S S S S S
|-0-0-0-0-0-0-0-0-0-0-0-|---0-------0-------0---------|
|-0-0-0-0-0-0-0-0-0-0-0-|-----------------------------|
|-0-0-0-0-0-2-2-2-2-2-2-|-------2-------2-------2-----|
|-2---------2-----------|---0-----0-------0-----------|
|-0---------0-----------|-------------------------0---|
|-2---------------------|-0---0-------0-------0---0h2-|


  E E S S S S E E S S S S
|-0-0-0-0-0-0---0-0-0-0----|
|-0-0-0-0-0-0-0-0-0-0-0----|
|-0-0-0-0-0-0-2-2-2-2-2-2--|
|-2-----------2-2-2-2-2-2--|
|-0-----------0------------|
|-2------------------------|


                                Verse 2
  E E S S S S S S S S S S S S    S S S S S S S S S S S S S S S S
|---0-------0-------0-------2-||-------0-------0-------0-------0-|
|-------------------0---------||---------------------------------|
|-------2-------2-------2-----||---2-------2-------2-------2-----|
|---0-----0---------------0---||-----0-------0-------0-------0---|
|-----------------0-----------||---------------------------------|
|-0---0-------0-------0-------||-0-------0-------0-------0-------|


  S S S S S S S S S S S S S S S S
|-------0-------0-------0-------0---|
|-----------------------------------|
|---2-------2-------2-------2-------|
|-----0-------0-------0-------0-----|
|-----------------------------------|
|-0-------0-------0-------0---------|


  S S S S S S S S S S S S S S S S
|-------0-------0-------0-------0-|
|---------------------------------|
|---2-------2-------2-------2-----|
|-----0-------0-------0-------0---|
|---------------------------------|
|-0-------0-------0-------0-------|


                                    PM            PM
  S S S S S S S S S S S S S S E   E S S E S S E E S S E
|-------0-------0-------0-------|-----0-----0---0-------|
|-------------------------------|-3-----0-----0---------|
|---2-------2-------2-------2---|---0---0-0---------2---|
|-----0-------0-------0---------|---------------0-----0-|
|-----------------------------0-|-3-----2-----0---------|
|-0-------0-------0-------0-----|-----------------0-----|


 3/4                   4/4
                  PM|
  S S E S S S S E S S   E E S S S S E S S S S S S
|-------------0---x-x-|-0-0-0-0-0-0-0-0-0-0-0-0-0-|
|---0-----0-----0-x-x-|-0-0-0-0-0-0-0-0-0-0-0-0-0-|
|-----0-----------x-x-|-0-0-0-0-0-0-2-2-2-2-2-2-2-|
|-----------0-----x-x-|-2---2-2-2-2-2-------------|
|-3-----2-------0-x-x-|-0---0-0-0-0-0-------------|
|-----------------x-x-|-2-----------2-------------|


  E E S S S S S S S S S S S S
|---0-------0-------0---------|
|---0---0-------0---------0-0-|
|---2---2---------2-------0-0-|
|---------0-------0-------2-2-|
|-0-----------------------0-0-|
|-0---0-------0-------0-0-2-2-|


  E E S S S S E S S S S S S
|-0-0-0-0-0-0-0-0-0-0-0-0-0-|
|-0-0-0-0-0-0-0-0-0-0-0-0-0-|
|-0-0-0-0-0-0-2-2-2-2-2-2-2-|
|-2-----------2-------------|
|-0-----------0-------------|
|-2-----------2-------------|


                                Guitar Break
                                             PM
  E S S S S S S S S S S S S E    S S S s s S E E E  S  S E
|-------------0---------------||-----------------------0---|
|---------------------0-------||-------3---5---7-5-(5)-----|
|---------2-------2-------2---||-2p0---5---7---9-7-(7)-----|
|---0-------0-------0-------0-||--------------------0------|
|-0---x-----------------------||-----0-------0---0---------|
|-0-----0-------0-------0-----||-0-------0-----0---------0-|


                                                PM
  S S S S  E   E  S S S S S S S S   S S S s s S E E E  S  S E
|-----------------------0-------0-|-----------------------0---|
|---------------------------------|-------3---5---7-5-(5)-----|
|-5p0---2-(2)-(2)-0-2-------2-----|-2p0---5---7---9-7-(7)-----|
|--------------0------0-------0---|--------------------0------|
|-----0--------0------------------|-----0-------0---0---------|
|-0--------0------0-------0-------|-0-------0-----0---------0-|


  S S S S  E   E  S S S S S S S S
|-----------------------0-------0---|
|-----------------------------------|
|-5p0---2-(2)-(2)-0-2-------2-------|
|--------------0------0-------0-----|
|-----0--------0--------------------|
|-0--------0------0-------0---------|


  S S S S  S  a S E E E S S S S   T T S S S +S  E. S S E S S S S
|-----------------------0-0---0-|----------------------0-------0-|
|-----------------------0-0-----|--------------------------------|
|-2p0---0-(0)-------2---2-2-----|-0h2p0---0-(0)-2----2-----2-2---|
|-------------2s4-----0---------|-------3-------0--0-------------|
|-----0-----------0---------0---|--------------------------------|
|-0--------0--------0---0-------|------------------0-----0-------|


  |-3-|              |-3-|
  S S S S S +S  E. E S S S S S E
|------------------------------------|
|------------------------------------|
|-0h2p0---0-(0)----------------------|
|-------3-------2--3-0h2p0-----------|
|---------------0----------3p0-------|
|------------------------------3b3.5-|


  E E S S S S S S S S S S  E    S S S S S S E S S S S S S S S
|---0-------0-------0---------|-------5-------7p5-------5-----|
|---------0-------------------|-5h8-------5---------8---------|
|-------2-2-----2-------0-(0)-|-----5-------5-----5-----------|
|---0-------------0--------0--|-0-------0-----0-----------0---|
|-----------------------------|-------------------------------|
|-0---0-------0-------0-------|-----0-------0---------0-------|


                  PM
  |-3-|         |3|
  S S S S s S S E S E E S S S S
|-5h7p5-------5-------0-----------|
|---------8-----------------------|
|-------5-------5-2---2---2-------|
|-----------0---0-----0-----0-----|
|-----------------------0---------|
|-------------------0-------------|


  S S S S S S E S S S S S S S S
|-------5-------7p5-------5-----|
|-5h8-------5---------8---------|
|-----5-------5-----5-----------|
|-0-------0-----0-------0---0---|
|-------------------------------|
|-----0-------0-----------------|


                 PM
                          |-3-|
    E S  S S  S  E T T E. S S S E   E E S S S S S S S S S S S S
|-------10------------------------|---0-------0-------0---------|
|-/12--------12\---0h3p0----------|-----------------------0-----|
|-----0----------0--------2h5p2-3-|---2---2-------2---------0---|
|---0--------------0------0-------|---0-----0-------0-----------|
|---------------------------------|-----------------------------|
|----------0----------------------|-0---0-------0-------0-------|


  S S S S S S E  E s S +S  S E   S S S S  S  S E  S S S s S S E
|-7-0---0-------10---9-(9)-----|-7p0---0-(0)-----10p0---9---0---|
|-----------8--------------8---|-------------8------------------|
|-----9-------9----9---------9-|-----9---------9------9-------9-|
|---------0--------------------|-----0--------------------0-----|
|------------------------------|--------------------------------|
|-0--------------0-------------|-0--------0-------0-------------|


                                  |3|
  S  S S S S  S S S S  S S S S  S E S
|--------7--------7p0------0------------|
|-8h10p8-----10p7-----10-------10-------|
|------9--------------------------------|
|----------0-------------0---0----0-0---|
|---------------------------------------|
|-0-------------------------------------|


  E E E. S S S E E E       E E S S S S S S S S S S S S
|---0--------------------|---0-------0-------0-------0-|
|--------0---------------|-----------------------------|
|------------------------|-------2-------2-------2-----|
|---0--------------------|---0-----0-------0-------0---|
|-0--------0-0---0-------|-----------------------------|
|-0---0--------3---3b3.5-|-0---0-------0-------0-------|


  S S S S S S S S S S S S S S S S
|-----------------------0---------|
|-------0-------0---------------0-|
|---0-------0-------0-------0-----|
|-----5-------5-------5-------5---|
|---------------------------------|
|-5-------5-------5-------5-------|


  S S S S S S S S S S S S S S S S   S S S S S S S S S S S S S S S S
|-----------------------0---------|---------------0---------------0-|
|-------0-------0---------------0-|-------0---------------0---------|
|---0-------0-------0-------0-----|---0-------0-------0-------0-----|
|-----3-------3-------3-------3---|-----4-------4-------4-------4---|
|---------------------------------|---------------------------------|
|-3-------3-------3-------3-------|-2-------2-------2-------2-------|


                |-3-|     |3|
  E E +S  S S S S S S S S E S S S
|---0-(0)-0-0-0--------------------|
|---0-(0)-0-0-0--------------------|
|---2-(2)-2-2-2--------------------|
|---0-(0)---0-0-0h2p0---0-2-3-2p0--|
|---------------------3------------|
|-0--------------------------------|


                            Verse 3
            PM
  E E E E S S S S S S S S    E E E E E S S S S E
|---------------0-------0-||---0---------0-------|
|---0---0---0-------------||---------------------|
|---2---2-----2-----2-----||-----------------2---|
|-------0-------------0---||---0---0---0---------|
|-------------------------||---------------------|
|-0---0---0-------0-------||-0---0---0-----0---0-|


  E S S E S S S S S S S S S S
|-----0-----0-------0-------0--|
|------------------------------|
|---------------2-------2------|
|---0-----0-------0-------0----|
|------------------------------|
|-0-----0-----0-------0--------|


  S S S S E S S S S S S S S S S
|-------0-----0-------0-------0-|
|-------------------------------|
|---2-------------2-------2-----|
|-----0-----0-------0-------0---|
|-------------------------------|
|-0-------0-----0-------0-------|


  S S S S E S S S S S S S S S S   S S S S S S S S E E S S E
|-------0-----0-------0-------0-|-------------------0---------|
|-------------------------------|---0---0---0---0-------------|
|---2-------------2-------2-----|-----0-------0---------2-----|
|-----0-----0-------0-------0---|-------------------0-----0---|
|-------------------------------|-3-------2-------------------|
|-0-------0-----0-------0-------|-----------------0---0-------|


 3/4                    4/4
  S E. S S S S E  S  S   E E E S S E E S S S S   E S S S S E S S S S S S E
|------------0---!0----|-0-0-0-0-0-0-0-0-0-0---|---2p0-------2p0---0-----0-|
|---0----0-----0-!0-^0-|-0-0-0-0-0-0-0-0-0-0-0-|---------3-------------3p0-|
|----------------!0-^0-|-0-0-0-0-0-2-2-2-2-2---|-------2---------2---------|
|----------0-----!0-^0-|-2---------2-----------|---0-------0-0-------0-----|
|-3----2-------0-!0-^0-|-0---------0-----------|-0-------------------------|
|----------------!0-^0-|-2---------------------|---------------------------|


  E E S S S S E E S S S S   E E S S S S S S S S S S   E
|-0-0-0-0-0-0---0-0-0-0---|---0-------0-------0---------||
|-0-0-0-0-0-0-0-0-0-0-0-0-|-----------------------------||
|-0-0-0-0-0-0-2-2-2-2-2---|-------2-------2-------2-----||
|-2-----------2-2-2-2-2---|---0-----0-------0---------0-||
|-0-----------0-----------|-----------------------------||
|-2-----------------------|-0---0-------0-------0-------||
|
|                         Gtr II
| W                         H           Q       E     E
|-------------------------|-----------------------------||
|-------------------------|-------------------------/10-||
|-------------------------|-----------------------------||
|-------------------------|-----------------------------||
|-------------------------|-----------------------------||
|-------------------------|-----------------------------||


 Verse 4
    E.  s   S     s  +E        e  E  S  S  E
|---------------------------------------------|
|-----------------2------------7--5-(5)-5-----|
|---2---5----------------------------0--------|
|---------------------------------------------|
|-----------0----(0)-(0)----------------------|
|---0--(0)---------------------0--0--------0--|
|
|                                 ~~
|   E.  S  +S  a  S   S   a  S E  Q        e
|------/8--(8)-8s10------10s12---10-----------|
|-/10-------------------------------------10--|
|---------------------------------------------|
|---------------------------------------------|
|---------------------------------------------|
|---------------------------------------------|


  E  S  s   S  S  E  E S S S   S E
|------------------------0-----------|
|------------------------------------|
|-5-----2------0-----2---------2-----|
|-----------------0----0---------0---|
|----0-------------------------------|
|-0---------0--------0-----0---------|
|
| ~~                 ~~
| E.    S  +S  E.    Q     S   E   S
|-8----------------------------------|
|------10-(10)-8----10-------/10-----|
|------------------------------------|
|------------------------------------|
|------------------------------------|
|------------------------------------|


    E.  s   S     s  +E        e  E  S  S  E   E  S  s   S  S  E  E S S S   S E
|--------------------------------------------|------------------------0-----------|
|-----------------2------------7--5-(5)-5----|------------------------------------|
|---2---5----------------------------0-------|-5-----2------0-----2---------2-----|
|--------------------------------------------|-----------------0----0---------0---|
|-----------0----(0)-(0)---------------------|----0-------------------------------|
|---0--(0)---------------------0--0--------0-|-0---------0--------0-----0---------|
|
|                                 ~~           ~~                 ~~
|   E.  S  +S  a  S   S   a  S E  Q        e   E.    S  +S  E.    Q     S   E   S
|------/8--(8)-8s10------10s12---10----------|-8----------------------------------|
|-/10-------------------------------------10-|------10-(10)-8----10-------/10-----|
|--------------------------------------------|------------------------------------|
|--------------------------------------------|------------------------------------|
|--------------------------------------------|------------------------------------|
|--------------------------------------------|------------------------------------|


                                    3/4
  S S S S S S   S S E E +S  S  E     Q    S S  E    E  S S
|-0-----0-------------0-(0)-0--0---|-------------------0-0-|
|---0-------0-----0---0-(0)-0--0---|-0------0----------0-0-|
|-----0---------0-----2-(2)-2--2---|-2-----------------0-0-|
|---------------------0-(0)-0--0---|-----------0-----------|
|-3-------2-----------0-(0)--------|-3----2---------0------|
|-------------------0--------------|-----------------------|
|
| E   S S E     E   E E  S  S  S S   E. S S E    S +e  e
|----------------------------------|-----------------------|
|-8S==7-8-----/10-----------8S10---|-8--6-8-6/---------8---|
|---------------------7------------|-------------7-(7)-----|
|----------------------------------|-----------------------|
|----------------------------------|-----------------------|
|----------------------------------|-----------------------|


 4/4
  E     E  S S    S   S  E E S  S S  S
|-0-----0--0-0----0---0-!0-0-0--0-0--0--|
|-0-----0--0-0----0---0-!0-0-0--0-0--0--|
|-0-----2--2-2----2---2-!2-2-2--2-2--2--|
|-2-----2--2-2----2---2-!2-2-2--2-2--2--|
|-0-------------------------------------|
|-2-------------------------------------|
|
|          |---3----|
| S  S  E  E    E   E    E e e    e
|---------------------------------------|
|-8s10-10-10---10---8---10-8-6/---6/----|
|---------------------------------------|
|---------------------------------------|
|---------------------------------------|
|---------------------------------------|


  E  S S S S  E S S S S  S  S E
|----0----------3p0---0-(0)-------|
|----------0-^0-------------------|
|------2-----^2-----2-------2p0---|
|----0-------^0-------------------|
|---------------0--------0--------|
|-0------0--------------------0---|
|
| ~~
| H.                     S  S S S
|---------------------------------|
|---------------------------6s8---|
|-7-------------------------------|
|---------------------------------|
|---------------------------------|
|---------------------------------|


  E     E  S  S S S E  E  S S S S   E  E S S S S E S S  S  S S S
|-0--------0--0-0-0-0--0--0-0-0-0-|----0-------------0-(0)-----0---||
|-0-----0--0--0-0-0-0--0--0-0-0-0-|------------0-------------------||
|-0-----0--2--2-2-2-2--2--2-2-2-2-|--------2---2-----------2-------||
|-2-----2-----------2--2--2-2-2-2-|----0-----0-----0---------0-----||
|-0-----------------0-------------|--------------------------------||
|-2-------------------------------|-0----0-------0------0----------||
|
|                                   ~~
| S  S  E  S  S S S E  e  E   e     H.                  Q
|---------------------------------|--------------------------------||
|-8s10-10-10-10---7s8-(8)-6s==7---|--------------------------------||
|---------------------------------|-7------------------------------||
|---------------------------------|--------------------------------||
|---------------------------------|--------------------------------||
|---------------------------------|--------------------------------||


 Verse 5
  S S S S S S S S S S S S S S S S   E    S S  S   S E       E  E  S S S S
|-------0-------0-------0-------0-|----------------------------0--------0-|
|---------------------------------|-0-------------5---------7--0----0-----|
|---2-------2-------2-------2-----|--------5------7-------------------2---|
|-------------0-------0-------0---|-----------------0---------------------|
|-----0---------------------------|------0------------------0-------------|
|-0-------0-------0-------0-------|-0---------0----------------0--0-------|
|
|                                                              ~~~
| W                                 S  E   S +S   S S  a  S E  Q.
|---------------------------------|--------8-(8)-10---10s12---10----------|
|---------------------------------|-8s10----------------------------------|
|---------------------------------|---------------------------------------|
|---------------------------------|---------------------------------------|
|---------------------------------|---------------------------------------|
|---------------------------------|---------------------------------------|


    S  S S S S S S S S S S S S S E
|--------------0-------0---0---0-----|
|----------------------0-------0-----|
|------5---2-------2-----2-----------|
|------------0-------0---------------|
|--------0-------0-------0---0---0---|
|---0----------------------------0---|
|
|  +H.                       Q
|-(10)-------------------------------|
|------------------------------------|
|------------------------------------|
|------------------------------------|
|------------------------------------|
|------------------------------------|


                                                  |-3-|
  e S S S E S    S S S S S S E     S  S S S S S E S S S S S  S  S E
|----------------------0-------|------------------------------------|
|-5----------------------------|------------------------------------|
|-----5p4-0------0h2-------2---|---2p=0-------0---0h2p0-0-------0---|
|-0------------------0-------0-|--------3-3---------------3-(3)-----|
|---0------------------------0-|------------------------------------|
|-------0---0----0-------0-----|---0----0---0---0-0-----0----0----0-|
|
|                ~~~
| Q     S E T T  H                +W
|-8-----7----------------------|------------------------------------|
|---------8---8s10-------------|-(10)-------------------------------|
|------------------------------|------------------------------------|
|------------------------------|------------------------------------|
|------------------------------|------------------------------------|
|------------------------------|------------------------------------|


  E S S S S S S  S  S S S S S  S  S
|-----0-------0-(0)-----0--------^0--|
|-------------0-(0)---------0----^0--|
|-2-------2---------2---------!3-----|
|---0-------0---------0-------!0-----|
|------------------------------------|
|-0-----0--------0--------0----------|


  |-3-|     |-3-|   |---6---| |-3-|
  S S S S S S S S E S S S E S S S S E
|-------------------------------------|
|-------------------------------------|
|-0h2p0---0-0h2p0---0h2p0---0---------|
|-------3---------3-------3---0h2p0---|
|-----------------------------------3-|
|-------------------------------------|


 2/4             4/4
                  |-3-|   |-3-|   |-3-|
  E  S  S E S S   S S S e S S S e S S S e E S S
|---!0-^0-------|-------------------------------|
|---!0-^0-------|-------------------------0---0-|
|---!2-^2-2-0-0-|-------2-------2-------2-0-0---|
|-0---------0-0-|-4p2p0---4p2p0---4p2p0---2-----|
|-0-------------|-----------------0-------3-----|
|---------------|-------------------------------|


  |-3-|   |-3-|   |-3-|          |-3-|   |-3-|   |-3-|
  S S S e S S S e S S S E E. S   S S S e S S S e S S S e E. S
|------------------------------|------------------------------|
|----------------------------0-|------------------------------|
|-------2-------2--------------|-------2-------2-------2----0-|
|-4p2p0---4p2p0---4p2p0-2-2----|-4p2p0---4p2p0---4p2p0---2----|
|-----------------0-------3----|-----------------0-------3----|
|------------------------------|------------------------------|


  |-3-|     |---6---| |--6--| |---6---|
  S S S S S E S S S S E S E S S S S E S
|----------------------------------------|
|-------------------------------------0--|
|-----------------------------0h2p0---0--|
|-0h2p0---0-2-3-0h2p0---0-2-3-------3----|
|-------3-------------3------------------|
|----------------------------------------|


                  |3|  |3-|
  E E S S S S S S E S +E  S S S     S S S S S S S S S S S S S S S S
|---0-------0-------0-(0)-----0-|-----------------0---------------0-|
|---0---------------0-(0)-------|---------0---------------0---------|
|---2---2-------2---2-(2)-x-----|-----0-------0-------0-------0-----|
|---0-----0-------0---------0---|-------5-------5-------5-------5---|
|-------------------------------|-----------------------------------|
|-0---0-------0-----------------|---5-------5-------5-------5-------|
|
|                               Gtr II
|                                   ~~~
| W                                 W
|-------------------------------|-/15-------------------------------|
|-------------------------------|-----------------------------------|
|-------------------------------|-----------------------------------|
|-------------------------------|-----------------------------------|
|-------------------------------|-----------------------------------|
|-------------------------------|-----------------------------------|


      S S S S S S S S S S S S S S S S
|-------------------0------------------|
|-----------0---------------0-------0--|
|-------0-------0-------0-------0------|
|---------3-------3-------3------------|
|---------------------------------3----|
|-----3-------3-------3-------3--------|
|
|     ~~
|  a  W
|-15s13--------------------------------|
|--------------------------------------|
|--------------------------------------|
|--------------------------------------|
|--------------------------------------|
|--------------------------------------|


                     |-3-|                        |3-|
  S  S  S S  +E  E   S S S  S S  S S  E     E  E +E  S E S S S S +S  S E
|-------0------------0h2p0---------0----|------0-(0)-------0---------0---|
|---------------------------0-3-(3)-----|------0-(0)-----3-----3-(3)-----|
|----x--------------------------------2-|------2-(2)-2-2-----2-----------|
|---------3--(3)-0---------------0------|------0-(0)-0-0-3-------------0-|
|---------------------------------------|--------------0-----------------|
|-0-------------------------------------|---0----------------------------|
|
|                                           ~~~~
| S  E.      +E.   S e      E    E    E     W
|-9s10------(10)-----8------------------|--10----------------------------|
|--------------------------10----8s==10-|-(10)---------------------------|
|---------------------------------------|--------------------------------|
|---------------------------------------|--------------------------------|
|---------------------------------------|--------------------------------|
|---------------------------------------|--------------------------------|


    S S S S S S S S   S  S S S   S   S S S
|----------------------------0--(0)----------|
|-^-0-0-------0---0------0---------------0---|
|-^-4-----4----------------0---------0-------|
|-^-5---5-------5----------------------5-----|
|-^-5----------------------------------------|
|-^-5-------5---------5----------5-----------|
|
|                     ~~~~
|   H                +Q         +Q
|-/15---------------(15)-------(15)\---------|
|--------------------------------------------|
|--------------------------------------------|
|--------------------------------------------|
|--------------------------------------------|
|--------------------------------------------|


      S S S S S S S S S S S S S S S S     S   S S S S S S S S S S S S S S S
|---------------------------0---------|---------------------------0---------|
|-----------0-------0---------------0-|-----------0-------0-------0-------0-|
|-------0-------0-------0-------0-----|-------0-------0-------0-------0-----|
|---------3-------3-------3-------3---|---------2-------2-------2-------2---|
|-------------------------------------|-------------------------------------|
|-----3-------3-------3-------3-------|---2---------2-------2-------2-------|
|
|     ~~
|  a  W                                   H..                           E
|-12s13-------------------------------|-/12---------------------------------|
|-------------------------------------|-------------------------------------|
|-------------------------------------|-------------------------------------|
|-------------------------------------|-------------------------------------|
|-------------------------------------|-------------------------------------|
|-------------------------------------|-------------------------------------|


                               |---5----|
    S  S S S S S S S S S S S   S  S S S S
|------------------0------------------------|
|----------0-------0-------0----------0-----|
|------0-------0-------0----------0-----0---|
|--------1-------1-------1----------1-------|
|-------------------------------------------|
|---1--------1-------1---------1------------|
|
|   ~~~~
|   H.                        +Q
|-/11------------------------(11)-----------|
|-------------------------------------------|
|-------------------------------------------|
|-------------------------------------------|
|-------------------------------------------|
|-------------------------------------------|


  H.=H
                |-----6------|
  S S S S +E. S S S    S S S S +Q      W             W
|-0------------------------0-2-(2)--:--0-----------|------*|
|---0--------------------3----------:--3-----------|------*|
|-----0----------------2------------:--2-----------|------*|
|-------1-(1)-0---0-----------------:--0-----------|------*|
|---------------0-------------------:--0-----------|------*|
|-----------------------------------:--0-----------|------*|
|
| H             S    E.         Q     +Q   H.        W
|-------------------10s=========3---:-(3)s=5-------|------*|
|-----------------------------------:--------------|------*|
|-----------------------------------:--------------|------*|
|-----------------------------------:--------------|------*|
|-----------------------------------:--------------|------*|
|-----------------------------------:--------------|-0----*|
Добавлено: 31.08.2013
Другие материалы по этой песне:

Страница создана 23.07.2012
http://primanota.ru/gallagher-rory/out-on-the-western-plain-chords.htm
Привет, Гость.
Предлагаем пройти революционный курс по гитаре.
Подарок от PrimaNota.Ru, забирай!