PrimaNota.ru - самый крупный в мире бесплатный архив песенных текстов, аккордов, табулатур и нот


Gallagher, Rory - Do you read me - таба, видео

Регистрация Запомнить меня
Войти через:  Facebook Google Twitter Vk Yandex Mail.ru

Gallagher, Rory - Do you read me - таба, видео

Печатать
Просмотров: 289
Do you read me – Rory Gallagher (CD: Calling Card)

Intro

   |   |    |    |     |    |    |   |      
e|-------------------|------------------|
B|-6---6-------------|------------------|
G|----------5----5---|-5h7--------------|
D|-------------------|------------------|
A|-------------------|------------------|
E|-------------------|------------------|

   |     |     |      |        |    |    |    |       
e|---------------------------|------------------|
B|-tr68----------------------|------------------|
G|-------------5h7p5--5------|------------------|
D|---------5/7------7--7-5\3-|------------------|
A|---------------------------|-3--5-------------|
E|---------------------------|------------------|


     |     |      |    |       |       |     |     |       
e|-------------------------|-----------------------------|
B|-------------------------|-----------------------------|
G|----------------5--------|-----------------------------|
D|-----3h5p3--5/7----------|------3h5p3---3----------5h7-|
A|-3/5-------5-------------|-3/5--------5----3-----------|
E|-------------------------|-----------------------------|


   |      |     |    |       |      |      |     |       
e|-------------------------|---------------10---------|
B|--------8b8p6-8-6—6p5----|--------------------------|
G|----6h8--------------7-5-|-7------------------------|
D|-5h7---------------------|--------------------------|
A|-------------------------|--------------------------|
E|-------------------------|--------------------------|
   
   F                        C 
   |     |    |    |        |      |      |     |       
e|-1----------------------|--------------------------|
B|-1----------------------|-5------------------------|
G|-2----------------------|-5------------------------|
D|-3----------------------|-5------------------------|
A|------------------------|-3------------------------|
E|------------------------|--------------------------|

         Dm        G               Dm
   |     |    |    |        |      |      |     |       
e|-------5---------3------|--------5-----------------|
B|-------6---------3------|--------6-----------------|
G|-------7---------4------|--------7-----------------|
D|-------7---------5------|--------8-----------------|
A|------------------------|--------------------------|
E|------------------------|--------------------------|

   F                        C
   |     |    |    |        |      |      |     |       
e|-1----------------------|--------------------------|
B|-1----------------------|-5------------------------|
G|-2----------------------|-5------------------------|
D|-3----------------------|-5------------------------|
A|------------------------|-3------------------------|
E|------------------------|--------------------------|

         Dm        G               A
   |     |    |    |        |      |      |     |       
e|-------5---------3------|--------0-----------------|
B|-------6---------3------|--------2-----------------|
G|-------7---------4------|--------2-----------------|
D|-------7---------5------|--------2-----------------|
A|------------------------|--------0-----------------|
E|------------------------|--------------------------|


               Dm  G   Dm  G                 Dm  G  Dm
Do you read me,           won't you tell me? 
       F                      C                    Dm  G  Dm
If you read me, then please believe me, when I say 
    G                 Dm  G  Dm       G           Dm  G  Dm
Yes I've been waiting,         seems like forever 
          F               C                          Dm  G  Dm
I've been waiting, my situation ain't got much better 
               F                C                           Dm  G  Dm
Well I've been waiting, the situation don't get much better 



Interlude :
   C        G        Am      Am       G        G
   |     |     |     |       |     |     |     |       
e|-------------------------|-------------------------|
B|-5--3-----3--------------|-------------------------|
G|-------5-----5—-4-—5--4--|-5--4--2--4--2--5--4-----|
D|-------------------------|----------------------5--|
A|-------------------------|-------------------------|
E|-------------------------|-------------------------|

   Dm                        
   |     |         |     |    
e|-------------------------------|
B|-------------------------------|
G|-2--------12-10-12-------12-10-|
D|-------------------------------|
A|-------------------------------|
E|-------------------------------|

   Dm                        
   |           |           |         |         
e|------------------------------------------|
B|----------------------10------------------|
G|-12-10-12-10-12-10-12----12---------------|
D|------------------------------------------|
A|------------------------------------------|
E|------------------------------------------|


Interlude:

   C        G        Am      Am       G        G
   |     |     |     |       |     |     |     |       
e|-------------------------|-------------------------|
B|-5--3-----3--------------|-------------------------|
G|-------5-----5—-4-—5--4--|-5--4--2--4--2--5--------|
D|-------------------------|-------------------------|
A|-------------------------|--------------------3----|
E|-------------------------|-------------------------|

   Dm                        
   |     |         |          |
e|---------------------------------|
B|---------------------------------|
G|-------7-------------------------|
D|---------------------5h7p5--5—5--|
A|-5------------------------8------|
E|---------------------------------|

   Dm                        
   |           |           |         |         
e|------------------------------------------|
B|------------------------------------------|
G|------------------------------------------|
D|------------------------------------------|
A|-5\3--------------------------------------|
E|------------------------------------------|


          G7(9)                 G7(9)
You don't do unto others as you do unto me, 
      Dm                         Dm
Well, why am I the only one that treats you this way? 
      G7(9)                           G7(9)
Well, you got that something and it's hard to specify, 
A                          C    
I just can't diagnose that look in your eyes. 

Solo:
               Dm                    G    
   |           |           |         |         
e|----------------------------------------------|
B|----------------------------------------------|
G|-7tr10-------------------------7--------------|
D|-------------------------10-------------------|
A|----------------------------------------------|
E|----------------------------------------------|

               Dm                    G    
   |           |           |         |         
e|----------------------------------------------|
B|----------------------------------------------|
G|-7tr10-------------------------7--------------|
D|-------------------------10--------------5\3--|
A|----------------------------------------------|
E|----------------------------------------------|



               Dm                    G    
   |           |           |         |         
e|----------------------------------------------|
B|----------------------------------------------|
G|-------------------------7-----5---7-----5----|
D|-5-----3-----5-----3--------------------------|
A|----------------------------------------------|
E|----------------------------------------------|

               Dm                    G    
   |           |           |         |         
e|----------------------------------------------|
B|-------------------------6--------------------|
G|-5-----------------------------7--------------|
D|----------------------------------------------|
A|----------------------------------------------|
E|----------------------------------------------|

   F    
   |           |           |         |         
e|----------------------------------------------|
B|-13b---------------13b------------------13p10-|
G|----------------------------------------------|
D|----------------------------------------------|
A|----------------------------------------------|
E|----------------------------------------------|

   C
   |           |           |         |         
e|----------------------------------------------|
B|-13----13----13p10----------------------------|
G|-------------------12p10-12b—12p10-12--10-----|
D|----------------------------------------------|
A|----------------------------------------------|
E|----------------------------------------------|

               Dm                    G 
   |           |           |         |         
e|-15----13----------------10h13p10--10---------|
B|---------------------------------13------13---|
G|----------------------------------------------|
D|----------------------------------------------|
A|----------------------------------------------|
E|----------------------------------------------|

   Dm
   |           |           |         |         
e|-10-----------------------------------13-15---|
B|-----------------------------------15---------|
G|----------------------------------------------|
D|----------------------------------------------|
A|----------------------------------------------|
E|----------------------------------------------|

               Dm                    G
   |           |           |         |         
e|-15b---------15b---15p13-15---13------13-15---|
B|-----------------------------------15---------|
G|----------------------------------------------|
D|----------------------------------------------|
A|----------------------------------------------|
E|----------------------------------------------|



               Dm                    G
   |           |           |         |         
e|-15b---------15b---15p13----------------------|
B|-------------------------15-------------------|
G|----------------------------------------------|
D|----------------------------------------------|
A|----------------------------------------------|
E|----------------------------------------------|

               Dm                    G
   |           |           |         |         
e|-15b---------15b—15p13---15---13---15—-13-----|
B|----------------------------------------------|
G|----------------------------------------------|
D|----------------------------------------------|
A|----------------------------------------------|
E|----------------------------------------------|

               Dm                    G
   |           |           |         |         
e|-15----------20----17-------------------------|
B|----------------------------------------------|
G|----------------------------------------------|
D|----------------------------------------------|
A|----------------------------------------------|
E|----------------------------------------------|

 
  F
   |           |           |         |         
e|----------------------------------------------|
B|----------------------------------------------|
G|-------5-----7-----5----------5----7----5-----|
D|-7-----------------------7--------------------|
A|----------------------------------------------|
E|----------------------------------------------|

   C
   |           |           |         |         
e|----------------------------------------------|
B|----------------------------------------------|
G|----------------------------------------------|
D|-------3-----5------3----5b--------------5p3--|
A|-5--------------------------------------------|
E|----------------------------------------------|



               Dm                    G
   |           |           |         |         
e|----------------------------------------------|
B|----------------------------------------------|
G|----------------------------------------------|
D|-5----------------3h5p3—-3/5\3----------------|
A|-----------------------5-------5---3-----3----|
E|----------------------------------------------|


   Dm
   |           |           |         |         
e|----------------------------------------------|
B|----------------------------------------------|
G|----------------------------------------------|
D|----------------------------------------------|
A|-3/5------------------------------------------|
E|----------------------------------------------|



          G7(9)              G7(9)
You don't do unto me, like I know you could 
Dm                          Dm    
Why am I the only one who's misunderstood? 
G7(9)                    G7(9)
Ashes to ashes, and it's dust to dust, 
      A                           C
Well, if you won't take me then I guess the devil must. 

                 Dm  G   Dm   G                   Dm  G  Dm
I've been hurting,         my hearts been burning, 
          F                      C                      
I've been hurting, but I've been learning, just the same 

               Dm                    G
   |           |           |         |         
e|----------------------------------------------|
B|----------------------------------------------|
G|----------------------------------------------|
D|-------12-10-12----------12-10-12-------12-10-|
A|----------------------------------------------|
E|----------------------------------------------|


   Dm                    
   |           |           |         |         
e|----------------------------------------------|
B|----------------------------------------------|
G|----------------------------------------------|
D|----------------------------------------------|
A|-12----12-10-12-10-12-10-12-------------------|
E|----------------------------------------------|



                       Dm  G   Dm      G            Dm  G  Dm
Well, I've been waiting,         seems like forever 
                F               C                          Dm  G  Dm
While I've been waiting, my situation ain't got much better 


   F                    
   Waiting                      my   situ - 
   |           |           |         |         
e|----------------------------------------------|
B|----------------------------------------------|
G|-----------------------------------------5----|
D|------------------------------7----8----------|
A|----------------------------------------------|
E|----------------------------------------------|


   C                    
  ation                       ain't got much 
   |           |           |         |         
e|----------------------------------------------|
B|----------------------------------------------|
G|-------------------5----------5----7-----5----|
D|-------------8-----------8--------------------|
A|----------------------------------------------|
E|----------------------------------------------|



               Dm                    G 
   better
   |           |           |         |         
e|----------------------------------------------|
B|----------------------------------------------|
G|-7-----------------------5h7p5-----5----------|
D|--------------------5--7--------7-----7—5\3---|
A|----------------------------------------------|
E|----------------------------------------------|

   Dm                    
   |           |           |         |         
e|----------------------------------------------|
B|----------------------------------------------|
G|----------------------------------------------|
D|-5-----5-----5--3-----------------------------|
A|----------------------5-----------------------|
E|----------------------------------------------|


                F               C                          Dm  G  Dm
While I've been waiting, my situation don't got much better 


Solo:

   F
   |           |           |         |         
e|----------------------------------------------|
B|-13b---------------------------13b------13-10-|
G|----------------------------------------------|
D|----------------------------------------------|
A|----------------------------------------------|
E|----------------------------------------------|

   C
   |           |           |         |         
e|----------------------------------------------|
B|----------------------------------------------|
G|-12----10----12b—--12-10-12---12---12-10------|
D|----------------------------------------------|
A|----------------------------------------------|
E|----------------------------------------------|

               Dm                    G
   |           |           |         |         
e|----------------------------------------------|
B|----------------------------------------------|
G|----------------------------------------------|
D|-10-11-12-------------------------------------|
A|-------------10-11-12----8-9-10----8----------|
E|--------------------------------------10------|

               Dm                    G
   |           |           |         |         
e|----------------------------------------------|
B|----------------------------------------------|
G|----------------------------------------------|
D|-10-11-12-------------------------------------|
A|-------------10-11-12----8-9-10----8----------|
E|--------------------------------------10------|


   F                    
   |           |           |           |         
e|----------------------------------------------|
B|----------------------------------------------|
G|----------------------------------------------|
D|-------10----10-10----10-10----10-10-----10---|
A|-12----------------12-------12-------12-------|
E|----------------------------------------------|

   C
   |           |           |           |         
e|-------------------------------------------------|
B|-------------------------------------------------|
G|-------------------------------------------------|
D|-------10----10-10----10-10----10-10----10-10----|
A|-12----------------12-------12-------12-------12-|
E|-------------------------------------------------|

               Dm                    G
   |           |           |           |         
e|-------------------------------------------------|
B|-------------------------------------------------|
G|-------------------------------------------------|
D|-10-10----10-10----10-10----10-10----10-10----10-|
A|-------12-------12-------12-------12-------12----|
E|-------------------------------------------------|



               Dm                    G
   |           |           |         |         
e|----------------------------------------------|
B|----------------------------------------------|
G|----------------------------------------------|
D|-10tr12---------------------------------------|
A|-----------------------------------------3----|
E|----------------------------------------------|



   F                    
   |           |           |         |         
e|----------------------------------------------|
B|----------------------------------------------|
G|----------------------------------------------|
D|----------------------3-----------------------|
A|-5-----3-----5--3--5-----5--------------------|
E|----------------------------------------------|

   C
   |           |           |         |         
e|----------------------------------------------|
B|----------------------------------------------|
G|----------------------------------------------|
D|----------------------------------------10-11-|
A|-------------------------------3--------------|
E|-3-----1-----3-----1-----/5-------------------|


               Dm                    G
   |           |           |         |         
e|----------------------------------------------|
B|-----------------------------------13---------|
G|-------10----12b---12p10-12b------------12----|
D|-12-------------------------------------------|
A|----------------------------------------------|
E|----------------------------------------------|



               Dm                    
   |           |           |         |         
e|----------------------------------------------|
B|-10----------10----------10----------------10-|
G|----------------------------------------12----|
D|----------------------------------------------|
A|----------------------------------------------|
E|----------------------------------------------|


   F                    
   |           |           |         |         
e|-------10----13----------10--------13---------|
B|-13----------------------------13-------------|
G|----------------------------------------------|
D|----------------------------------------------|
A|----------------------------------------------|
E|----------------------------------------------|

   C
   |           |           |         |         
e|-10----------13----------10--------13---------|
B|-------13----------------------13-------------|
G|----------------------------------------------|
D|----------------------------------------------|
A|----------------------------------------------|
E|----------------------------------------------|





               Dm                    G
   |           |           |         |         
e|-13-------------------------------------------|
B|-------------13-10----------------------------|
G|-------------------------12---10---12b-—12p10-|
D|----------------------------------------------|
A|----------------------------------------------|
E|----------------------------------------------|



               Dm                    
   |           |           |         |         
e|-10-------------------------------------------|
B|----------------------------------------------|
G|----------------------------------------------|
D|----------------------------------------------|
A|----------------------------------------------|
E|----------------------------------------------|




Coda :
   C        G        Am      Am       G        G
   |     |     |     |       |     |     |     |       
e|-------------------------|-------------------------|
B|-5--3-----3--------------|-------------------------|
G|-------5-----5—-4-—5--4--|-5--4--2--4--2--5--4-----|
D|-------------------------|----------------------5--|
A|-------------------------|-------------------------|
E|-------------------------|-------------------------|

   Dm                        Dm
   |     |      |      |       |       |     |     |       
e|----------------------------|-------------------------|
B|-------10-----10--10--------|-------------------------|
G|-------10-----10--10--------|-------------------------|
D|-7---------12--------12--10-|12---10-12----12---------|
A|----------------------------|-------------------------|
E|----------------------------|-------------------------|

   C        G        Am      Am       G        G
   |     |     |     |       |     |     |     |       
e|-------------------------|-------------------------|
B|-5--3-----3--------------|-------------------------|
G|-------5-----5—-4-—5--4--|-5--4--2--4--2--5--4-----|
D|-------------------------|----------------------5--|
A|-------------------------|-------------------------|
E|-------------------------|-------------------------|

   Dm                        Dm
   |     |     |     |       |     |     |     |       
e|-------------------------|-------------------------|
B|-------------------------|-------------------------|
G|-7-----------------------|-------------------------|
D|-------------------------|-------------------------|
A|-------------------------|-------------------------|
E|-------------------------|-------------------------|


   C        G        Am      Am       G        G
   |     |     |     |       |     |     |     |       
e|-12-10-------------------|-------------------------------|
B|-------13-12-10----------|-------10-12-10-12-10h12p10----|
G|----------------12-10-9--|-10-12----------------------12-|
D|-------------------------|-------------------------------|
A|-------------------------|-------------------------------|
E|-------------------------|-------------------------------|

   Dm                        Dm
   |     |     |     |       |     |     |     |       
e|-10----------------------|-------------------------|
B|-------------------------|-------------------------|
G|-------------------------|-------------------------|
D|-------------------------|-------------------------|
A|-------------------------|-------------------------|
E|-------------------------|-------------------------|



Transcribed by Gerard Koot (Amsterdam, The Netherlands) – aug 2008
Email: gerardkoot@hotmail.com

Добавлено: 11.08.2013
Другие материалы по этой песне:

Страница создана 04.04.2012
http://primanota.ru/gallagher-rory/do-you-read-me-chords.htm
Привет, Гость.
Предлагаем пройти революционный курс по гитаре.
Подарок от PrimaNota.Ru, забирай!