PrimaNota.ru - самый крупный в мире бесплатный архив песенных текстов, аккордов, табулатур и нот


Gahan, Dave - Dirty Sticky Floors - текст песни, таба, видео

Регистрация Запомнить меня
Войти через:  Facebook Google Twitter Vk Yandex Mail.ru

Gahan, Dave - Dirty Sticky Floors - текст песни, таба, видео

Печатать
Просмотров: 389
Авторы музыки: Knox Chandler, Dave Gahan
Авторы текста: Knox Chandler, Dave Gahan
Here is an acoustic tab for Dave Gahan's single "Dirty sticky floors" (2003). It 
sounds really cool!!! :) 


\ - Slide down
~ - Vibrato
x - Mute

Intro:
E|-----------------|-------------------|
B|-----------------|-------------------|
G|-----6-------6~--|-----6-----6x-6-4~-|
D|-6-----6-6-------|-6-----6-6-6-------|
A|-4-4---4-4-4-----|-4-4---4-4---------|
E|-----------------|-------------------|

Lyrics:
E|-----------------|-------------------|
B|-----------------|-------------------|
G|-6-6-6-6-6-4-4-4-|-4-----------------|
D|-6-6-6-6-6-4-4-4-|-4-4-4-4-4-\2--2-2-|
A|-4-4-4-4-4-2-2-2-|-2-4-4-4-4-\2--2-2-|
E|-----------------|---2-2-2-2-\0--0-0-|

Chorus:
E|-----------------|-------------------|-------------------|
B|-----------------|-------------------|-------------------|
G|-6-6-(6)6-(6)6---|-------------------|-------------------|
D|-6-6-(6)6-(6)6---|-4-4-(4)4-(4)4-4---|-4-4-(4)4-(4)4-4---|
A|-4-4-(4)4-(4)4---|-4-4-(4)4-(4)6-4---|-4-4-(4)4-(4)4-4---|
E|-----------------|-6-6-(6)6-(6)6-6---|-2-2-(2)2-(2)2-2---|


That's all :)
If you have any questions, please e-mail me on: anyone_out_there@i.ua
Добавлено: 14.06.2012
Другие материалы по этой песне:

Страница создана 18.03.2012
http://primanota.ru/gahan-dave/dirty-sticky-floors-chords.htm
Привет, Гость.
Предлагаем пройти революционный курс по гитаре.
Подарок от PrimaNota.Ru, забирай!