PrimaNota.ru - самый крупный в мире бесплатный архив песенных текстов, аккордов, табулатур и нот


Funkadelic - Lunchmeataphobia - бас-таба, видео

Регистрация Запомнить меня
Войти через:  Facebook Google Twitter Vk Yandex Mail.ru

Funkadelic - Lunchmeataphobia - бас-таба, видео

Печатать
Просмотров: 103
Lunchmeataphobia
Funkadelic
One Nation under a Groove
Posted by Z-Funk Zero

E|-0-2-0------0-2-0------0-2-0------0-2-0----14\2---------------|
A|--------------------------------------------------------------|
D|--------------------------------------------------------------|
G|--------------------------------------------------------------|

E|-0-2-0----------0-2-0----------0-2-0----------0-2-0-----------|
A|--------2--4-5---------2--4-5---------2--4-5---------2--4-5---|
D|--------------------------------------------------------------|
G|--------------------------------------------------------------|

E|-0-2-0----------0-2-0----------0-2-0----------0-2-0------------|
A|--------2--4-5---------2--4-5---------2--4-5---------2--4-5----|
D|---------------------------------------------------------------|
G|---------------------------------------------------------------|

E|-------------------------------------------|
A|-7-----7-----7-7--------9--7-7--------9----|
D|--------------------9-7-----------9-7------|
G|----9---------9-9-7---------9-9-7----------|

guitar plays almost the same
Добавлено: 20.03.2012
Другие материалы по этой песне:
  • Аккорды и текст

Страница создана 20.03.2012
http://primanota.ru/funkadelic/lunchmeataphobia-chords.htm
Привет, Гость.
Предлагаем пройти революционный курс по гитаре.
Подарок от PrimaNota.Ru, забирай!