PrimaNota.ru - самый крупный в мире бесплатный архив песенных текстов, аккордов, табулатур и нот


Funeral For A Friend - Out Of Reach - текст песни, таба, видео

Регистрация Запомнить меня
Войти через:  Facebook Google Twitter Vk Yandex Mail.ru

Funeral For A Friend - Out Of Reach - текст песни, таба, видео

Печатать
Просмотров: 145
Уроки эстрадного вокала в Санкт-Петербурге
----------------------------------------------------------------------------
                             Out Of Reach - Funeral For A Friend
----------------------------------------------------------------------------
Tabbed by: Dan Guest
Email: dan_guest1234@hotmail.com

Tuning: Db (as with all FAFF songs) so seeing as your all so lazy/shit i was forced to 
it out myself! its all on my own worked from ear and pure briliance

lead intro
eb|------------------------------------------------------------------------|
Bb|------------------------------------------------------------------------|
Gb|-------------------12121211121212-----------------------15--------------|
Db|------------------------------------------second time-------------------|
Ab|--7-7-10-7-7-10----1010109-101010-----------------------13--------------|
Db|------------------------------------------------------------------------|
rythem intro
eb|------------------------------------------------------------------------|
Bb|------------------------------------------------------------------------|
Gb|------------------------------------------------------------------------|
Db|-2c--5c-4c-5c----------------8c-----------------------------------------|
Ab|-2c--5c-4c-5c--second time---8c-----------------------------------------|
Db|-2c--5c-4c-5c----------------8c-----------------------------------------|
verses
eb|------------------------------------------------------------------------|
Bb|------------------------------------------------------------------------|
Gb|---------------------------------------------------------------10c------|
Db|--2222-222222-220----------little fill before second each bit-----------|
Ab|--2222-222222-220----------------------------------------------8c-------|
Db|--2222-222222-220-------------------------------------------------------|
pre chorus rythem
eb|------------------------------------------------------------------------|
Bb|------------------------------------------------------------------------|
Gb|------------------------------------------------------------------------|
Db|-2c--5c-4c-5c-----------------------------------------------------------|
Ab|-2c--5c-4c-5c-----------------------------------------------------------|
Db|-2c--5c-4c-5c-----------------------------------------------------------|

eb|------------------------------------------------------------------------|
Bb|------------------------------------------------------------------------|
Gb|-------------------12121211121212---------------------------------------|
Db|------------------------------------------------------------------------|
Ab|--7-7-10-7-7-10----1010109-101010---------------------------------------|
Db|------------------------------------------------------------------------|

chorus
eb|------------------------------------------------------------------------|
Bb|------------------------------------------------------------------------|
Gb|-------------7777777777/999/111111--------------------------------------|
Db|-5c--8c--0--------------------------------------------------------------|
Ab|-5c--8c--0---5555555555/777/9-9-9---------------------------------------|
Db|-5c--8c--0--------------------------------------------------------------|
pre breakdown
eb|------------------------------------------------------------------------|
Bb|------------------------------------------------------------------------|
Gb|------------------------------------------------------------------------|
Db|--2222-222222-220-------------------------------------------------------|
Ab|--2222-222222-220-------------------------------------------------------|
Db|--2222-222222-220-------------------------------------------------------|
lead
eb|------------------------------------------------------------------------|
Bb|------------------------------------------------------------------------|
Gb|------------------------------------------------------------------------|
Db|------------------------------------------------------------------------|
Ab|---13-12-10-12-8--------------------------------------------------------|
Db|------------------------------------------------------------------------|
rythem
eb|------------------------------------------------------------------------|
Bb|------------------------------------------------------------------------|
Gb|------------------------------------------------------------------------|
Db|-----8-7-5-7-3----------------------------------------------------------|
Ab|-----8-7-5-7-3----------------------------------------------------------|
Db|-----8-7-5-7-3----------------------------------------------------------|
outro octave bit (main riff over this)
eb|------------------------------------------------------------------------|
Bb|------------------------------------------------------------------------|
Gb|---9-11-12--------------------------------------------------------------|
Db|----------------8-7-5-7-3-----------------------------------------------|
Ab|---7-9--10------8-7-5-7-3-----------------------------------------------|
Db|----------------8-7-5-7-3--(lead does this in octaves)------------------|

back to chorus

like i said its all there but the main guitar is tabbed the rest is i the tab but played 
a different time if ya get me fun fun fun!

| /  slide up
| \  slide down
| h  hammer-on
| p  pull-off
| ~  vibrato
| +  harmonic
| x  Mute note
===============================================================================
Добавлено: 17.07.2012
Другие материалы по этой песне:

Страница создана 05.05.2012
http://primanota.ru/funeral-for-a-friend/out-of-reach-chords.htm
Привет, Гость.
Предлагаем пройти революционный курс по гитаре.
Подарок от PrimaNota.Ru, забирай!