PrimaNota.ru - самый крупный в мире бесплатный архив песенных текстов, аккордов, табулатур и нот


Funeral For A Friend - Red Is The New Black - аккорды и текст, таба, бас-таба, видео

Регистрация Запомнить меня
Войти через:  Facebook Google Twitter Vk Yandex Mail.ru

Funeral For A Friend - Red Is The New Black - аккорды и текст, таба, бас-таба, видео

Печатать
Просмотров: 199
Red Is The New Black
Funeral For A Friend
Funeral For a Friend - Red Is The New Black
Tabbed by: Pete Tonley

Bass comes in at 0.24

Intro
G-----------------------------------|
D-----------------------------------|
A-----------------------------------|
Db---333---333----------333---333---|

Pre Verse
G-----------------------------------------------------|
D-----------------------------------------------------|
A--------------------------------444444444444444444---|  X2
Db---3333-33-333---3333-33-3333-----------------------|

Verse
G----------------------------------------------------------------|
D----------------------------------------------------------------|  X4
A-------------------------------44444---44444---44444---44444----|
Db---3333-33-333---3333-33-333-----------------------------------|
On the 4 time play the 4's with no pauses

Chorus
G-------------------------------------------|
D-------------------------------------------|
A-----------------6h7-6---------444-44-44---|  X2
Db---666666666666-------3333333-------------|

Verse
Chorus X4
G---------------|
D---------------|
A---------------|  Just do this loads of times
Db---44-44-44---|

Pause

G-----------------------------------|
D-----------------------------------|
A-----------------------------------|
Db---3~~----------------------3xx---|

Endish bit
G------------------------------------------------------------------|
D------------------------------------------------------------------|
A--------------------------------444-44-44-44-44-444-44-44-44-44---| X4
Db---3333-3333-3333---666666666------------------------------------|

G---------------|
D---------------|
A---------------| Again loads of times
Db---44-44-44---|
Добавлено: 09.08.2013
Другие материалы по этой песне:

Страница создана 03.03.2012
http://primanota.ru/funeral-for-a-friend/red-is-the-new-black-chords.htm
Привет, Гость.
Предлагаем пройти революционный курс по гитаре.
Подарок от PrimaNota.Ru, забирай!