PrimaNota.ru - самый крупный в мире бесплатный архив песенных текстов, аккордов, табулатур и нот


Funeral For A Friend - Moments Forever Faded - аккорды и текст, таба, видео

Регистрация Запомнить меня
Войти через:  Facebook Google Twitter Vk Yandex Mail.ru

Funeral For A Friend - Moments Forever Faded - аккорды и текст, таба, видео

Печатать
Просмотров: 151
Moments Forever Faded
Funeral For A Friend
Moments Forever Faded - Funeral For A Friend
Tabbed by Tom Martin

Tuning - Standard (E A D G B E) low to high

---------------------------------------------------------------------------------------

Intro - (0.00 - 0.12)

Rhythm
Repeated C#5 chord

---------------------------------------------------------------------------------------

Intro - (0.12 - 0.38)

Rhythm
Repeated C#5 chord

Lead
|----------------------------------------------------------------------------|
|----------------------------------------------------------------------------|
|----------------------------------------------------------------------------|
|---8----6----4--------------------------------------------------------------| x4
|---8----6----4--------------------------------------------------------------|
|---6----4----2--------------------------------------------------------------|

---------------------------------------------------------------------------------------

Verse - (0.38 - 1.29)

Rhythm
|----------------------------------------------------------------------------|
|----------------------------------------------------------------------------|
|----------------------------------------------------------------------------|
|---8----6----(4-4--4-4-4)---------------------------------------------------| x4
|---8----6----(4-4--4-4-4)-x4------------------------------------------------|
|---6----4----(2-2--2-2-2)---------------------------------------------------|
PM             - -  - -

Lead
|----------------------------------------------------------------------------|
|---2--1--------(2--1-------)--------------1--2------------------------------|
|---------1-----(------1----)-x3--------1------------------------------------|
|---------------(---------3~)-----1--3---------------------------------------| x4
|----------------------------------------------------------------------------|
|----------------------------------------------------------------------------|

---------------------------------------------------------------------------------------

Chorus - (1.29 - 1.55)

|----------------------------------------------------------------------------|
|----------------------------------------------------------------------------|
|----------------6----5-------------------6----------------------------------|
|---4------8-----6-x4-5-x4---4------8-----6-x4--4-4-4------------------------| x2
|---4-x16--8-x8--4----3------4-x16--8-x8--4-----4-4-4------------------------|
|---2------6-----------------2------6-----------2-2-2------------------------|
PM                                              - - -

---------------------------------------------------------------------------------------

Repeat Verse (1/2 length first verse) - (1.55 - 2.20)

---------------------------------------------------------------------------------------

Repeat Chorus - (2.20 - 2.46)

---------------------------------------------------------------------------------------

Bridge - (2.46 - 3.37)

Rhythm
|----------------------------------------------------------------------------|
|----------------------------------------------------------------------------|
|----------------------------------------------------------------------------|
|---(8-8)------6-6--(4-4)-----6-6--------------------------------------------| x8
|---(8-8)-x10--6-6--(4-4)-x10-6-6--------------------------------------------|
|---(6-6)------4-4--(2-2)-----4-4--------------------------------------------|

Lead
|----------------------------------------------------------------------------|
|----------1-(13)--2-(14)--1-(13)------------(-----------------13-14-13--)---|
|---1-(13)-------------------------1-(13)----(can-be-played--13--------13)---|
|--------------------------------------------(---------------------------)---| x8
|----------------------------------------------------------------------------|
|----------------------------------------------------------------------------|
HH  *      *       *       *       *      (harp harmonics, fret in bracket is harmonised note)

|----------------------------------------------------------------------------|
|----------------------------------------------------------------------------|
|----------------------------------------------------------------------------|
|---(8-8)------6-6--(4-4)-----6-6--------------------------------------------| x4
|---(8-8)-x10--6-6--(4-4)-x10-6-6--------------------------------------------|
|---(6-6)------4-4--(2-2)-----4-4--------------------------------------------|

---------------------------------------------------------------------------------------

Chorus - (3.37 - 4.02)

Rhythm
|----------------------------------------------------------------------------|
|----------------------------------------------------------------------------|
|----------------6----5-------------------6----------------------------------|
|---4------8-----6-x4-5-x4---4------8-----6-x4--4-4-4------------------------| x2
|---4-x16--8-x8--4----3------4-x16--8-x8--4-----4-4-4------------------------|
|---2------6-----------------2------6-----------2-2-2------------------------|
PM                                              - - -

Lead
|----------------------------------------------------------------------------|
|----------------------------------------------------------------------------|
|---6----8----13----6----5---------------------------------------------------|
|---x-x8-x-x4--x-x4-x-x4-x---------------------------------------------------| x4
|---4----6----11----4----3---------------------------------------------------|
|----------------------------------------------------------------------------|

---------------------------------------------------------------------------------------

Outro - (4.02 - 4.24)

Rhythm
Hold F#5 note and let feedback

|------------------------------------------------------------------------------|
|--------1-(13)-2-(14)-1-(13)--------1-(13)--------1-(13)-2-(13)-1-(13)--------|
|--1-(13)---------------------1-(13)--------1-(13)----------------------1-(13)-|
|------------------------------------------------------------------------------|
|------------------------------------------------------------------------------|
|------------------------------------------------------------------------------|
HH  *     *      *      *      *     *      *      *      *      *      *

---------------------------------------------------------------------------------------

thats all, hope it helps.
infantfinite666@hotmail.com - my msn
Добавлено: 14.07.2012
Другие материалы по этой песне:

Страница создана 23.02.2012
http://primanota.ru/funeral-for-a-friend/moments-forever-faded-chords.htm
Привет, Гость.
Предлагаем пройти революционный курс по гитаре.
Подарок от PrimaNota.Ru, забирай!