PrimaNota.ru - самый крупный в мире бесплатный архив песенных текстов, аккордов, табулатур и нот


From First To Last - A Perfect Mess - таба, видео

Регистрация Запомнить меня
Войти через:  Facebook Google Twitter Vk Yandex Mail.ru

From First To Last - A Perfect Mess - таба, видео

Печатать
Просмотров: 148
Уроки эстрадного вокала в Санкт-Петербурге
Tabbed By: KCibanez
Band: From First To Last
Song: A Perfect Mess
Tuning: Half Step Down 
.= Palm mute, *= Pinch harmonic
Listen to the song for strumming, Please comment any corrections!
The Chorus and strumming was hard to hear, so it may be wrong. 

Guitar 1 Intro, The strumming changes on the third time for guitars 1 and 2
e|---------------------------------------------------------------------------|
B|---------------------------------------------------------------------------|
G|-7---9---10--6-------------------------------------------------------------|
D|-x---x---x---x--X4---------------------------------------------------------|
A|-5---7---8---4-------------------------------------------------------------|
D|---------------------------------------------------------------------------|
 
Guitar 2 Intro
e|---------------------------------------------------------------------------|
B|---------------------------------------------------------------------------|
G|--------------------6666666------------------------------------------------|
D|00000-8888888-00000-4444444------------------------------------------------|
A|00000-8888888-00000-4444444--x4--------------------------------------------|
D|00000-8888888-00000-4444444------------------------------------------------|

Verse 
e|---------------------------------------------------------------------------|
B|---------------------------------------------------------------------------|
G|---------------------------------------------------------------------------|
D|-800-800-80----------------------------------------------------------------|
A|-800-800-80--x4------------------------------------------------------------|
D|-800-800-80----------------------------------------------------------------|
    ..  ..  .

Guitar 1 Chorus                            Lifes bittersweet...
e|---------------------------------------------------------------------------|
B|---------------------------------------------------------------------------|
G|-7-----6-----9------22-----14----21------7-----9------22-----14----21------|
D|-x-x6--x--x4-x-x4---x--x10--x-x4--x-x4---x-x4--x--x4---x-x8--x--x4--x--x4--|
A|-5-----4-----7------20-----12----19------5-----7------20-----12----19------|
D|---------------------------------------------------------------------------|
 
  Guitar 2 Chorus                        Lifes bittersweet... 
e|---------------------------------------------------------------------------|
B|---------------------------------------------------------------------------|
G|---------------------------------------------------------------------------|
D|-00000000-5555-8888---------------------0000088888-------------------------|
A|-00000000-5555-8888---------------------0000088888-------------------------|
D|-00000000 5555-8888-888-5555555505885---0000088888-888-5555555505885-------|

  Post chorus part
e|---------------------------------------------------------------------------|
B|---------------------------------------------------------------------------|
G|---------------------------------------------------------------------------|
D|-0-0-----------------------------------------------------------------------|
A|-0-0---------0-------------------------------------------------------------|
D|-0-0---12b//-0-------------------------------------------------------------|

 Verse
e|---------------------------------------------------------------------------|
B|---------------------------------------------------------------------------|
G|---------------------------------------------------------------------------|
D|-800-800-80----------------------------------------------------------------|
A|-800-800-80--x4------------------------------------------------------------|
D|-800-800-80----------------------------------------------------------------|
    ..  ..  .
 
Guitar 1 Chorus                            Lifes bittersweet...
e|---------------------------------------------------------------------------|
B|---------------------------------------------------------------------------|
G|-7-----6-----9------22-----14----21------7-----9------22-----14----21------|
D|-x-x6--x--x4-x-x4---x--x10--x-x4--x-x4---x-x4--x--x4---x-x8--x--x4--x--x4--|
A|-5-----4-----7------20-----12----19------5-----7------20-----12----19------|
D|---------------------------------------------------------------------------|
 
  Guitar 2 Chorus                        Lifes bittersweet... 
e|---------------------------------------------------------------------------|
B|---------------------------------------------------------------------------|
G|---------------------------------------------------------------------------|
D|-00000000-5555-8888---------------------0000088888-------------------------|
A|-00000000-5555-8888---------------------0000088888-------------------------|
D|-00000000 5555-8888-888-5555555505885---0000088888-888-5555555505885-------|


 Guitar 1 Solo 
e|---------------------------------------------------------------------------|
B|---------------------------------------------------------------------------|
G|-----------------------------------------*-*-------------------------------|
D|----1517-------^----------1517------^--17b16b------------------------------|
A|--13----1715131513-9b--13----1715131513------------------------------------|
D|---------------------------------------------------------------------------|

e|---------------------------------------------------------------------------|
B|---------------------------------------------------------------------------|
G|--------------------*-------------------*---*--*---------------------------|
D|----1517-------^---16b----1517---------17b16b-16b--------------------------|
A|--13----1715131513-----13----1715131513------------------------------------|
D|---------------------------------------------------------------------------|


 Guitar 2 Solo {let last time ring out} 
e|---------------------------------------------------------------------------|
B|---------------------------------------------------------------------------|
G|---------------------------------------------------------------------------|
D|-8888888800000000888888884p04p04p04p0--------------------------------------|
A|-8888888800000000888888884p04p04p04p0---X4---------------------------------|
D|-8888888800000000888888884p04p04p04p0--------------------------------------|

Guitar 1 Chorus                            Lifes bittersweet...
e|---------------------------------------------------------------------------|
B|---------------------------------------------------------------------------|
G|-7-----6-----9------22-----14----21------7-----9------22-----14----21------|
D|-x-x6--x--x4-x-x4---x--x10--x-x4--x-x4---x-x4--x--x4---x-x8--x--x4--x--x4--|
A|-5-----4-----7------20-----12----19------5-----7------20-----12----19------|
D|---------------------------------------------------------------------------|
 
  Guitar 2 Chorus                        Lifes bittersweet... 
e|---------------------------------------------------------------------------|
B|---------------------------------------------------------------------------|
G|---------------------------------------------------------------------------|
D|-00000000-5555-8888---------------------0000088888-------------------------|
A|-00000000-5555-8888---------------------0000088888-------------------------|
D|-00000000 5555-8888-888-5555555505885---0000088888-888-5555555505885-------|
 
 Guitar 1 Outro
e|---------------------------------------------------------------------------|
B|---------------------------------------------------------------------------|
G|-7---9---10--6-------------------------------------------------------------|
D|-x---x---x---x--X4---------------------------------------------------------|
A|-5---7---8---4-------------------------------------------------------------|
D|---------------------------------------------------------------------------|
 
Guitar 2 Outro
e|---------------------------------------------------------------------------|
B|---------------------------------------------------------------------------|
G|--------------------6666666------------------------------------------------|
D|00000-8888888-00000-4444444------------------------------------------------|
A|00000-8888888-00000-4444444--x4--------------------------------------------|
D|00000-8888888-00000-4444444------------------------------------------------|

 Guitar 1 {Strum until end of song}
e|---------------------------------------------------------------------------|
B|---------------------------------------------------------------------------|
G|--21-----------------------------------------------------------------------|
D|--x------------------------------------------------------------------------|
A|--19-----------------------------------------------------------------------|
D|---------------------------------------------------------------------------|
 
Добавлено: 18.03.2012
Другие материалы по этой песне:

Страница создана 18.03.2012
http://primanota.ru/from-first-to-last/a-perfect-mess-chords.htm
Привет, Гость.
Предлагаем пройти революционный курс по гитаре.
Подарок от PrimaNota.Ru, забирай!