PrimaNota.ru - самый крупный в мире бесплатный архив песенных текстов, аккордов, табулатур и нот


From First To Last - For The Taking - текст песни, таба, видео

Регистрация Запомнить меня
Войти через:  Facebook Google Twitter Vk Yandex Mail.ru

From First To Last - For The Taking - текст песни, таба, видео

Печатать
Просмотров: 169

e|---------------------------|
B|---------------------------|
G|---------------------------|
D|---------------------------|x4
A|---------------------------|
D|-/////////////////////////-|
    pick slide..

          intro/verse 1
E|---------------------------|
B|---------------------------|
G|---12-x--7-x--5~~~~--------|
D|---12-x--7-x--5~~~~--------|x4
A|-10---x-5--x-3-~~~~--------|
D|---------------------------|     1




      chorus      
e|---------------------------|
B|---------------------------|
G|---------------------------|
D|--55555-77777--------------|x4
A|--33333-55555-77777-55555--|
D|--------------77777-55555--|


     verse 2
E|---------------------------|
B|---------------------------|
G|---12-x--7-x--5~~~~--------|
D|---12-x--7-x--5~~~~--------|x3
A|-10---x-5--x-3-~~~~--------|
D|---------------------------|


E|---------------------------|
B|---------------------------|
G|---5-x--7-x---12-~~~~------|
D|---5-x--7-x---12-~~~~------|x1
A|--3--x-5--x-10-~~~~--------|
D|---------------------------|

E|---------------------------|
B|---------------------------|
G|---12-x--7-x--5~~~~--------|
D|---12-x--7-x--5~~~~--------|x1
A|-10---x-5--x-3-~~~~--------|
D|---------------------------|


E|---------------------------|
B|---------------------------|
G|---5-x--7-x---12-~~~~------|
D|---5-x--7-x---12-~~~~------|x1
A|--3--x-5--x-10-~~~~--------|
D|---------------------------|


E|-------------------------------|
B|-------------------------------|
G|-------------------------------|
D|-555555-777777-121212121212----|x4
A|-333333-555555-101010101010----|
D|-------------------------------|
pm  .....  ....    . . . . .


E|-------------------------------|
B|-------------------------------|
G|-------------------------------|
D|-555555-777777-121212121212----|x3
A|-333333-555555-101010101010----|
D|-------------------------------|


E|-------------------------------|
B|-777-h9-7----777-h9-7----777-h9-7-----777-h9-7-----------|
G|---------------------------------------------------------|
D|---------------------------------------------------------|x
A|---------------------------------------------------------|
D|---------777---------333---------555-----------9~~~7~~~--|


       chorus
e|---------------------------|
B|---------------------------|
G|---------------------------|
D|--55555-77777--------------|x4
A|--33333-55555-77777-55555--|
D|--------------77777-55555--|


     verse 3
E|---------------------------|
B|---------------------------|
G|---12-x--7-x--5~~~~--------|
D|---12-x--7-x--5~~~~--------|x3
A|-10---x-5--x-3-~~~~--------|
D|---------------------------|


E|---------------------------|
B|---------------------------|
G|---5-x--7-x---12-~~~~------|
D|---5-x--7-x---12-~~~~------|x1
A|--3--x-5--x-10-~~~~--------|
D|---------------------------|

E|---------------------------|
B|---------------------------|
G|---12-x--7-x--5~~~~--------|
D|---12-x--7-x--5~~~~--------|x1
A|-10---x-5--x-3-~~~~--------|
D|---------------------------|


E|---------------------------|
B|---------------------------|
G|---5-x--7-x---12-~~~~------|
D|---5-x--7-x---12-~~~~------|x1
A|--3--x-5--x-10-~~~~--------|
D|---------------------------|


E|-------------------------------|
B|-------------------------------|
G|-------------------------------|
D|-555555-777777-121212121212----|x4
A|-333333-555555-101010101010----|
D|-------------------------------|
pm  .....  ....    . . . . .


E|-------------------------------|
B|-------------------------------|
G|-------------------------------|
D|-555555-777777-121212121212----|x3
A|-333333-555555-101010101010----|
D|-------------------------------|


E|-----------------------------------------------------------|
B|----777-h9-7----777-h9-7----777-h9-7----777-h9-7-----------|
G|-----------------------------------------------------------|
D|-----------------------------------------------------------|x2
A|-----------------------------------------------------------|
D|--77----------33----------55---------55---77---------------|
                        solo
guitar 1                       guitar 2
E|---------------------|       E|--------------------|
B|---------------------|       B|-3333-5555-777-h9-7-|
G|---------------------|       G|--------------------|
D|---------------------|x2     D|--------------------|x2
A|-3333-5555-7777-9999-|       A|--------------------|
D|-3333-5555-7777-9999-|       D|--------------------|


E|--------------------------|
B|--------------------------|
G|--------------------------|
D|-12-12-12-12-12-12-12-12--|
A|-10-10-10-10-10-10-10-10--|
D|--------------------------|


ending hxc part.....

E|--------------------------|
B|--------------------------|
G|--------------------------|
D|--------------------------|
A|-0000000000---------------|
D|-0000000000---------------|
 pm..........   for the taking..


E|------------------------------------------------------|
B|------------------------------------------------------|
G|------------------------------------------------------|
D|------------------------------------------------------|
A|------------------------------------------------------|
D|-3xxx-1xxx5-xxx3-xxx3///7-1-3-------------------------|

E|-------------------------|
B|-------------------------|
G|-------------------------|
D|-------------------------|
A|-------------------------|x2
D|-3333-1111-5555-xxx3xxx3-|

ending..

E|--------------------------------------|
B|--------------------------------------|
G|---12x--7x--5x----5x--7x---12x--------|
D|---12x--7x--5x----5x--7x---12x--------|
A|-10--x-5-x-3-x---3-x-5-x-10--x--------|
D|--------------------------------------|

Добавлено: 13.03.2012
Другие материалы по этой песне:
  • Аккорды и текст

Страница создана 13.03.2012
http://primanota.ru/from-first-to-last/for-the-taking-chords.htm
Привет, Гость.
Предлагаем пройти революционный курс по гитаре.
Подарок от PrimaNota.Ru, забирай!