PrimaNota.ru - самый крупный в мире бесплатный архив песенных текстов, аккордов, табулатур и нот


Шопен Фредерик - Op 6 No 1 - Mazurka In Fm No 1 - таба, видео

Регистрация Запомнить меня
Войти через:  Facebook Google Twitter Vk Yandex Mail.ru

Шопен Фредерик - Op 6 No 1 - Mazurka In Fm No 1 - таба, видео

Печатать
Просмотров: 227
Уроки эстрадного вокала в Санкт-Петербурге
Mazurka Op 6 No 1 - Chopin (1810-1849)

Transcribed by Giancarlo Bellido (vicentico1@hotmail.com)

to Judy Lopez

Standard Tuning

|--|--------------|--------|--------------|--------|--0---------|
|--|--------------|--------|--1-------1---|----3-3-|----3-2---1-|
|0-|--2-0---0-2---|--0-3-3-|----3-2-3---0-|--3-----|0-------2---|
|--|0-----4---0-1-|0---0-0-|----------1---|3---0-3-|2---------0-|
|--|------3---3---|--------|------3-------|1---1-1-|1-----0-----|
|--|--------------|3---3-3-|1-------------|--------|------------|

|--------------|------------|------------|--------------|--------|
|--3-1-0-------|--1---------|------------|--------------|--------|
|----------0-3-|----3-2---1-|--3-1-0---0-|--2-0---0-2---|--0-3-3-|
|3-------2-----|1-------3-0-|------1-1---|0-----4---0-1-|0---0-0-|
|--------4-----|3---------2-|4---------3-|------0---3---|--------|
|4---3---------|2-----1-----|0-----------|--------------|3---3-3-|

|--------------|--------|1---------|1---------|1---------|
|--1-------1---|----3-3-|--4-3-1-3-|--4-3-1-3-|--4-3-1-3-|
|----3-2-3---0-|--3-----|----------|----------|0---------|
|----------1---|3---0-3-|1-----1-3-|1-----1-3-|1-------4-|
|------3-------|1-------|----------|----------|------0---|
|1-------------|--------|----------|----------|----------|

|--------|--|--------------|--------|--------------|--------|--0---------|
|1-------|--|--------------|--------|--1-------1---|----3-3-|----3-2---1-|
|0-3-2-0-|0-|--2-0---0-2---|--0-3-3-|----3-2-3---0-|--3-----|0-------2---|
|1-0-----|--|0-----4---0-1-|0---0-0-|----------1---|3---0-3-|2---------0-|
|----3-1-|--|------3---3---|--------|------3-------|1---1-1-|1-----0-----|
|--------|--|--------------|3---3-3-|1-------------|--------|------------|

|--------------|------------|------------|--------------|--------|
|--3-1-0-------|--1---------|------------|--------------|--------|
|----------0-3-|----3-2---1-|--3-1-0---0-|--2-0---0-2---|--0-3-3-|
|3-------2-----|1-------3-0-|------1-1---|0-----4---0-1-|0---0-0-|
|--------4-----|3---------2-|4---------3-|------0---3---|--------|
|4---3---------|2-----1-----|0-----------|--------------|3---3-3-|

|--------------|--------|1---------|1---------|
|--1-------1---|----3-3-|--4-3-1-3-|--4-3-1-3-|
|----3-2-3---0-|--3-----|----------|----------|
|----------1---|3---0-3-|1-----1-3-|1-----1-3-|
|------3-------|1---1-1-|----------|----------|
|1-------------|--------|----------|----------|

|1---------|--------|--|10--------|--------|10--------|0---5---3-|
|--4-3-1-3-|1-------|3-|------2-4-|3-2-1-1-|------2-4-|--2-------|
|0---------|0-3-2-0-|--|7-7-----0-|--------|7-7-----0-|----5-----|
|1-------4-|1-0-----|--|0---7-2---|4-2-1---|0---7-2---|4-2-------|
|------0---|----3-1-|--|--0-------|------3-|--0-------|----------|
|----------|--------|--|----------|--------|----------|----------|

|10--------|--------|10--------|------------|--------------|--------|
|------2-4-|3-2-1-1-|------2-4-|3-2-1-------|--------------|--------|
|7-7-----0-|--------|7-7-----0-|------3---2-|0-2-0---0-2---|--0-3-3-|
|0---7-2---|4-2-1---|0---7-2---|4-2-1-0-----|------4---0-1-|0---0-0-|
|--0-------|------3-|--0-------|--------3---|1-----0---3---|--------|
|----------|--------|----------|------------|--------------|3---3-3-|

|--------------|--------|--0---------|------------|
|--1-------1---|----3-3-|----3-2---1-|--3-1-0-----|
|----3-2-3---0-|--3-----|0-------2---|--------0-3-|
|----------1---|3---0-3-|2---------4-|3---------2-|
|------3-------|1---1-1-|1-----0-----|----------4-|
|1-------------|--------|------------|4-----3-----|

|------------|------------|--------------|--------|--------------|
|--1---------|------------|--------------|--------|--1-------1---|
|----3-2---1-|--3-1-0---0-|--2-0---0-2---|--0-3-3-|----3-2-3---0-|
|1-------3-0-|------1-1---|0-----4---0-1-|0---0-0-|----------1---|
|3---------2-|4---------3-|------0---3---|--------|------3-------|
|2-----1-----|0-----------|--------------|3---3-3-|1-------------|

|--------|1---------|1---------|1---------|--------|--|10--------|
|----3-3-|--4-3-1-3-|--4-3-1-3-|--4-3-1-3-|1-------|3-|------2-4-|
|--3-----|----------|----------|0---------|0-3-2-0-|--|7-7-----0-|
|3---0-3-|4-----4-3-|4-----4-3-|1-------4-|1-0-----|--|0---7-2---|
|1---1-1-|----------|----------|------0---|----3-1-|--|--0-------|
|--------|----------|----------|----------|--------|--|----------|

|--------|10--------|0---5---3-|
|3-2-1-1-|------2-4-|--2-------|
|--------|7-7-----0-|----5-----|
|4-2-1---|0---7-2---|4-2-------|
|------3-|--0-------|----------|
|--------|----------|----------|

|10--------|--------|10--------|------------|--------------|--------|
|------2-4-|3-2-1-1-|------2-4-|3-2-1-------|--------------|--------|
|7-7-----0-|--------|7-7-----0-|------3---2-|0-2-0---0-2---|--0-3-3-|
|0---7-2---|4-2-1---|0---7-2---|4-2-1-0-----|------4---0-1-|0---0-0-|
|--0-------|------3-|--0-------|--------3---|1-----0---3---|--------|
|----------|--------|----------|------------|--------------|3---3-3-|

|--------------|--------|--0---------|------------|------------|
|--1-------1---|----3-3-|----3-2---1-|--3-1-0-----|--1---------|
|----3-2-3---0-|--3-----|0-------2---|--------0-3-|----3-2---1-|
|----------1---|3---0-3-|2---------4-|3---------2-|1-------3-0-|
|------3-------|1---1-1-|1-----0-----|----------4-|3---------2-|
|1-------------|--------|------------|4-----3-----|2-----1-----|

|------------|--------------|--------|--------------|--------|
|------------|--------------|--------|--1-------1---|----3-3-|
|--3-1-0---0-|--2-0---0-2---|--0-3-3-|----3-2-3---0-|--3-----|
|------1-1---|0-----4---0-1-|0---0-0-|----------1---|3---0-3-|
|4---------3-|------0---3---|--------|------3-------|1---1-1-|
|0-----------|----------2---|3---3-3-|1-------------|--------|

|1---------|1---------|1---------|--------|----------------|
|--4-3-1-3-|--4-3-1-3-|--4-3-1-3-|1-------|----3-------4---|
|----------|----------|0---------|0-3-2-0-|0-2---2-0-2---2-|
|4-----4-3-|4-----4-3-|1-------4-|1-0-----|----------------|
|----------|----------|------0---|----3-1-|------------3---|
|----------|----------|----------|--------|--------3-------|

|--------------|----------------|--------|----------------|----------------|
|3---4---------|------------4---|--------|----1-----------|------------3---|
|--2---2-0-2-0-|0-2-0-2-0-2---0-|--------|2-------3---2---|0---2---0-------|
|--------------|----------------|----0-1-|0-1-0-1-0-1-0-1-|0-1-0-1-0-1-0-1-|
|1---0---1-----|------------3---|1-0-1---|------------0---|----------------|
|--------------|--------3-------|--------|----------------|----------------|

|----------------|3-------|----------------|----------------|----------------|
|----1-----------|--------|4---3---1---4---|----------------|4---3---1-------|
|2-------3---2-0-|------2-|--2---2---2---2-|0-2-0-2-0-2-0-2-|--2---2---2-0-0-|
|0-1-0-1-0-1-0---|--------|----------------|----------------|----1-----------|
|------------0---|--------|------------3---|1---0---1-------|------------3---|
|----------------|3-2-3---|--------3-------|----------------|--------3-------|

|--------|----------------|----------------|----------------|--------------|
|--------|----1-----------|------------3---|----1-----------|--------------|
|--------|2-------3---2---|0---2---0-------|2-------3---2---|2---2---------|
|----0-1-|0-1-0-1-0-1-0-1-|0-1-0-1-0-1-0-1-|0-1-0-1-0-1-0-0-|--0---0-----0-|
|1-0-1---|------------0---|----------------|------------0---|4---4---3-1-0-|
|--------|----------------|----------------|----------------|--------2-----|

|--------------|--------|--------------|--------|--0---------|------------|
|--------------|--------|--1-------1---|----3-3-|----3-2---1-|--3-1-0-----|
|0-2-0---0-2---|--0-3-3-|----3-2-3---0-|--3-----|0-------2---|--------0-3-|
|0-----0---0-1-|0---0-0-|----------1---|3---0-3-|2---------0-|3---------2-|
|------3---3---|--------|------3-------|1---1-1-|1-----0-----|----------4-|
|--------------|3---3-3-|1-------------|--------|------------|4-----3-----|

|------------|------------|--------------|--------|--------------|
|--1---------|------------|--------------|--------|--1-------1---|
|----3-2---1-|--3-1-0---0-|--2-0---0-2---|--0-3-3-|----3-2-3---0-|
|1-------3-0-|------1-1---|0-----0---0-1-|0---0-0-|----------1---|
|3---------2-|1---------3-|------0---3---|--------|------3-------|
|2-----1-----|0-----------|--------------|3---3-3-|1-------------|

|--------|1---------|1---------|1---------|--------||
|----3-3-|--4-3-1-3-|--4-3-1-3-|--4-3-1-3-|1-------||
|--3-----|----------|----------|0---------|0-3-2-0-||
|3---0-3-|1-----4-3-|4-----4-3-|1-------4-|1-0-----||
|1---1-1-|----------|----------|------0---|----3-1-||
|--------|----------|----------|----------|--------||

Добавлено: 22.03.2012
Другие материалы по этой песне:
  • Аккорды и текст

Страница создана 22.03.2012
http://primanota.ru/frederic-chopin/op-6-no-1-mazurka-in-fm-no-1-chords.htm
Привет, Гость.
Предлагаем пройти революционный курс по гитаре.
Подарок от PrimaNota.Ru, забирай!