PrimaNota.ru - самый крупный в мире бесплатный архив песенных текстов, аккордов, табулатур и нот


Шопен Фредерик - Op 28 No 6 - Prelude In Bm - таба, видео

Регистрация Запомнить меня
Войти через:  Facebook Google Twitter Vk Yandex Mail.ru

Шопен Фредерик - Op 28 No 6 - Prelude In Bm - таба, видео

Печатать
Просмотров: 276
Op. 28 - Prelude 6 in Bm, Lento Assai (transposed to G#m)
Frederic Chopin

TablEdited by Canaan Hadley-Voth (ugggg@hotmail.com)

Tuning : E A D G B E    Time Signature: 3/4

|       |       |        |       |       |        |       |       |
|4---4---4---4---4---4---|4---4---4---4---4---4---|4---4---7---7---7---7---|
|4-------4-------4-------|4-------4-------4-------|4-------9-------9-------|
|4-------4-------3-----4-|4-------4-------4-------|4-----4-8-------6-----8-|
|------6-----------------|6-----------------------|----6-------------------|
|----6-------------------|------------6-----------|--6---------------------|
|4-7---------------------|----------------7---6---|4-----------------------|

|       |       |        |       |       |        |       |       |
|7---7---7---7---7---7---|7---7---7---7---7---7---|7---7---6---6---6---7---|
|9-------9-------9-------|9-----0-9-------9-------|9-------5-------5-------|
|8-------8-------8-------|9-------9-------8-------|10------7-------6---4---|
|9-----------6-----------|----6-------------------|------------------------|
|----------------6-------|------------------------|------------------------|
|--------------------7---|0-7---------------------|------------------------|

|       |       |        |       |       |        |       |       |
|9-----------11--9-7-6---|--------7---6-----------|4---4---4---4---4---4---|
|8---9---8---11--------9-|8---9---9---8-----------|4-------4-------4-------|
|9---9---9---8---8---8---|------------------------|4-------4-------3-----4-|
|8---9---8-------6-------|8---9---9---8-----------|------6-----------------|
|------------10----------|------------------------|----6-------------------|
|--------------------7---|----------------7---6---|4-7---------------------|

|       |       |        |       |       |        |       |       |
|4---4---4---4---4---4---|----------------4---4---|5---5---5---5---5---5---|
|4-------4-------4-------|9---9---9---9---5-------|5-------5-------5-------|
|4-------4-------4-------|9-------9-------6---7---|6-------6-------6-------|
|6-----------------------|9-----6-9---------------|------------7-----------|
|------------6-----------|----7-------------------|----------------7---0---|
|----------------7---4---|0-7---------------------|------------------------|

|       |       |        |       |       |        |       |       |
|------------------------|--------5---5---4---4---|3---3---3---3---4---4---|
|10--10--10--10--10--10--|10--10--5-------5-------|5-------4-------4-------|
|9-------9-------9-------|9-----------------------|3-------3-------4-------|
|11------11------11------|11----------------------|------------------------|
|0-----7---------0-----7-|------------------------|4-----------6---4-------|
|--0-9-------------0-9---|------------------------|------------------7-6-4-|

|       |       |        |       |       |        |       |       |
|4---4---3---3---4---4---|4---4---4---4---1---1---|1---1---4---4---4---4---|
|5-------5-------5-------|5-------4-------2-------|2---------------5-------|
|3-------3-------4-------|4-------3-------3-------|3-------4-------4-------|
|------------------------|--------1---------------|------------------------|
|4-----------6---4-------|----2-4-----------------|----------------7-------|
|------------------7-6-4-|2-0---------------------|0-----------------------|

|       |       |        |       |       |        |       |       |
|4---4---3---3---4---4---|4---4---3---3---4---4---|4---4---4---4---3---3---|
|5-------5-------4-------|5-------5-------5-------|5-------4-------4-------|
|3-------3-------4-------|3-------3-------4-------|4-------3-------3-------|
|------------------------|------------------------|--------1---------------|
|4-----------6---4-------|4-----------6---4-------|----2-4-----------------|
|------------------7-6-4-|------------------7-6-4-|2-0---------------------|

|       |       |        |       |       |        |       |       |
|4---4---4---4---2---2---|------------------------|------------------------|
|4-------4-------4-------|4---4---4---4---4---4---|4---4---4---4---4---4---|
|4-------4-------4-------|--------4-------3-----4-|4-------4-------4-------|
|------------------------|------6-----------------|6-----------------------|
|------------------------|----6-------------------|------------6-----------|
|------------------------|--4---------------------|----------------7---6---|

|       |       |        |       |       |        |       |       |
|------------------------|------------------------|------------------------|
|4---4-----------4---4---|4---4-------------------|------------------------|
|4---------------4-------|4-----------------------|------------------------|
|------------------------|------------------------|------------------------|
|------------------------|------------------------|------------------------|
|4-----------------------|------------------------|------------------------|

Created with TablEdit http://www.tabledit.com/

Добавлено: 24.02.2012
Другие материалы по этой песне:
  • Аккорды и текст

Страница создана 24.02.2012
http://primanota.ru/frederic-chopin/op-28-no-6-prelude-in-bm-chords.htm
Привет, Гость.
Предлагаем пройти революционный курс по гитаре.
Подарок от PrimaNota.Ru, забирай!