PrimaNota.ru - самый крупный в мире бесплатный архив песенных текстов, аккордов, табулатур и нот


Franz Ferdinand - Evil And A Heathen - текст песни, таба, бас-таба, видео

Регистрация Запомнить меня
Войти через:  Facebook Google Twitter Vk Yandex Mail.ru

Franz Ferdinand - Evil And A Heathen - текст песни, таба, бас-таба, видео

Печатать
Просмотров: 230
Уроки эстрадного вокала в Санкт-Петербурге
Авторы музыки: Alex Kapranos, Robert Hardy, Paul Thomson, Nicholas McCarthy
Авторы текста: Alex Kapranos, Robert Hardy, Paul Thomson, Nicholas McCarthy
-------------------------------------------------------------------------------
			     Evil and a Heathen - Franz Ferdinand
-------------------------------------------------------------------------------
Tabbed by: Squall.exe
Email: squall.exe@gmail.com

Tuning: Standard

Alright people, this should do it. Use moderate crunch and a flanger.

e|-----------------------------------------------------------------------------------|
B|-----------------------------------------------------------------------------------|
G|-----------------------------------------------------------------------------------|
D|-----------------------------------------------------------------------------------|
A|-----------------------------------------------------------------------------------|
E|-2-2-2-0h2-0h2-2-2-0h2 0h2-2-2-0h2-0h2-2-2-0h2-0h2-2-2-0h2-0h2-2-2-0h2-0h2-2--14/2-|
PM - - - - - - - - - - - - - - - - - - - - - - - - - - - - - - - - - - - - - - - - - -

e|---------------------------------------------------------------------------|
B|-2h3p2---------------2h3p2-------------------------------------------------|
G|-------4-2-1---1h2h4-------4-2-1---1---------------------------------------|
D|-------------4-------------------4---4-------------------------------------| x2
A|---------------------------------------------------------------------------|
E|---------------------------------------------------------------------------|

e|---------------------|---------------------------------|
B|--------------------o|o-------------------------------o|
G|---------------------|---------------------------------|
D|---------------------|-x4------7-7--6-6--4-4-4-2-4-2---| x4
A|--------------------o|o--------7-7--6-6--4-4-4-2-4-2--o|
E|-5-5-4-4-2-2-2-0h2-0-|---------5-5--4-4--2-2-2-0-2-0---|
PM - - - - - - - - - -

e|---------------------------------------------------------------------------|
B|-2h3p2---------------2h3p2-------------------------------------------------|
G|-------4-2-1---1h2h4-------4-2-1---1---------------------------------------|
D|-------------4-------------------4---4-------------------------------------| x2
A|---------------------------------------------------------------------------|
E|---------------------------------------------------------------------------|

e|---------------------|----------------------|---------------------------------|-------------|
B|--------------------o|---------------------o|o-------------------------------o|-------------|
G|---------------------|----------------------|---------------------------------|-----2-2-3-3-|
D|---------------------|-x2-------------------|-x4------7-7--6-6--4-4-4-2-4-2---|-x4----------|
A|--------------------o|---------------------o|o--------7-7--6-6--4-4-4-2-4-2--o|-------------|
E|-5-5-4-4-2-2-2-0-2-0-|--5-5-4-4-2-2-2-0h2-0-|---------5-5--4-4--2-2-2-0-2-0---|-------------|
                         PM - - - - - - - - - -

Solo
e|-----------------------------------|----------------------------------------|
B|o---------------------------------o|----------------------------------------|
G|----4--2--4--2--4--2--5--2---------|---4-2-4-2-4-2-5-2----------------------|
D|---------------------------2--0--2-|x3-----------------2-0-4----------------|
A|o---------------------------------o|----------------------------------------|
E|-----------------------------------|----------------------------------------|

                                                         ~~~~
e|---------------------------|---------------------------------x--------------|
B|o-------------------------o|---------------------------------x--------------|
G|--4-2-4-2-4-2-5-2----------|----4-2-4-2-4-2-5-2--------------x--------------|
D|--------------------4-2-4--|-x3-----------------4-2-4-4------x--------------|
A|o-------------------------o|---------------------------------x--------------|
E|---------------------------|---------------------------------x--------------|

e|------|-----------------------|-------------------|----------------------------|
B|------|o---------------------o|------------------o|----------------------------|
G|------|-----------------------|-------------------|----------------------------|
D|------|--7-7-6-6-4-4-4-2-4-2--|-x4--7-7-6-6-------|-x3-7-7-6-6-4---------------|
A|------|o-7-7-6-6-4-4-4-2-4-2-o|-----7-7-6-6------o|----7-7-6-6-4---------------|
E|-14/2-|--5-5-4-4-2-2-2-0-2-0--|-----5-5-4-4-2/14--|----5-5-4-4-2---------------|

| /  slide up
| \  slide down
| h  hammer-on
| p  pull-off
| ~  vibrato
| +  harmonic
| x  Mute note
===============================================================================
Добавлено: 15.06.2013
Другие материалы по этой песне:

Страница создана 13.07.2012
http://primanota.ru/franz-ferdinand/evil-and-a-heathen-chords.htm
Привет, Гость.
Предлагаем пройти революционный курс по гитаре.
Подарок от PrimaNota.Ru, забирай!