PrimaNota.ru - самый крупный в мире бесплатный архив песенных текстов, аккордов, табулатур и нот


Frankie Goes To Hollywood - Two Tribes - текст песни, бас-таба, видео

Регистрация Запомнить меня
Войти через:  Facebook Google Twitter Vk Yandex Mail.ru

Frankie Goes To Hollywood - Two Tribes - текст песни, бас-таба, видео

Печатать
Просмотров: 100
Уроки эстрадного вокала в Санкт-Петербурге
Авторы музыки: Mark O’Toole, Holly Johnson, Peter Gill
Авторы текста: Mark O’Toole, Holly Johnson, Peter Gill
Drop D tuning
Kept this simple as there are numerous versions of the same song. 

Intro:-

D  C Bb  D

Or:-

G|--------|--------|--------|--------|
D|--------|--------|--------|--------|
A|5-------|3-------|1-------|5-------|
D|--------|--------|--------|--------|

Verses
G|---------------------------|
D|---------------------------|   Repeat this bar as required
A|-3-555----3-3-555----------|  
D|-------0-----------0-------|

G|---------------------------|
D|---------------------------|   chuck this verse bar in from time to time to break things up a bit
A|-3-555----3-3-555----------|  
D|-------0-----------0--3--5-|

Chorus

G|---------------------------------
D|---------3-5----------5-3--------  Repeat as required
A|------3-5-----------------3-5----
D|55-7------------55-7-------------


Bridge

G|----------------|           G|----------------|
D|----------------| RPT       D|----------------|
A|5-5-03--5-5-03--|  3X       A|5-------0---3---|
D|----------------| then      D|----5-----------|


Depending on  your version repeat Verse lines and chorus' as required
Добавлено: 11.06.2016
Другие материалы по этой песне:
  • Аккорды и текст

Страница создана 05.05.2012
http://primanota.ru/frankie-goes-to-hollywood/two-tribes-chords.htm
Привет, Гость.
Предлагаем пройти революционный курс по гитаре.
Подарок от PrimaNota.Ru, забирай!