PrimaNota.ru - самый крупный в мире бесплатный архив песенных текстов, аккордов, табулатур и нот


Frankie Goes To Hollywood - Black Night White Light - аккорды и текст, видео

Регистрация Запомнить меня
Войти через:  Facebook Google Twitter Vk Yandex Mail.ru

Frankie Goes To Hollywood - Black Night White Light - аккорды и текст, видео

Печатать
Просмотров: 124
Авторы: Brian Nash, Mark O’Toole, Holly Johnson, Peter Gill

Black Night White Light
Frankie Goes To Hollywood
Frankie Goes to Hollywood


				Black Night White Light


>From the Album: Welcome to the Pleasuredome
Transcribed by valley
e-mail: vmtreu@access.unizh.ch


Intro:

4/4
E|-----------15-12-17-----------|
B|----13--12--------------------|
G|--------------------14-12-----|     repeat 2x
D|------------------------------|
A|------------------------------|
E|------------------------------|


1st part:

     Am                       G
E|-------------------------------------------------------|
B|-------------------------------------------------------|
G|---2-2-0--2--0-2-5-5-2--2-0-0-----0-----0----0---------|     repeat 1x
D|-------------------------------2-----2-----2-----2-0---|
A|-------------------------------------------------------|
E|-------------------------------------------------------|


1st verse (play 1st part):

Am
We are ...
    G
And ...

I feel ..
    Am
The angels ...
    G
You ...

Of ...


Chorus (play intro):

Em                        Em
Tell me ...
    C         D 
We are ..
Em             Em
Heaven's ...
    C         D
We are ...
   Em         Em     C        D  
Oh sing ...
Em        Em 
Giving ..
    C         D
We are ...

2nd part:

      Am         G      Am         D                        
E|-------------------------------------------------------|
B|-------------------------------------------------------|
G|----5-5-4-5-----------5-5-4-5----7---------------------|     repeat 1x 
D|------------7--5-5-7----------7------------------------|
A|-------------------------------------------------------|
E|-------------------------------------------------------|


3rd part:

      Am                          G     
      Black ...
E|--------------------------------------------------------------|
B|--------------------------------------------------------------| 
repeat
G|-------5-------------5-5-4------------------------------------|  1x    
D|----7------7---------------7--5-5-----5-----5-----5-----------| 
without 
A|-----------------------------------7-----7-----7------5-6-7---|  text
E|--------------------------------------------------------------|


2nd verse (play 3rd part without text):

Am
The ..
    G
Are ..

They ..
    Am
The ...
    G
You ..

You've ...


Repeat Chorus


4th part:

E9sus4
Chasing ...

Get ...
E9sus4
Rub ..

Work ..

Got ..

Going ..



Repeat 2nd part 2x



guit. solo:

     Am      G            Am         G                           Am
E|---5---3-3-3-----------------------------------------------0-3-5-3-5---|
B|--------------3--------------------------------------0-3-3-------------| 
G|-----------------0-----------------------------0-0-2-------------------|     
D|-----------------------------------------0-0-2-------------------------|   
A|--------------------3-3-0--0--3-0-----2--------------------------------|  
E|-----------------------------------3-----------------------------------|



Repeat 3rd part 2x (with text)

Repeat 3rd part 2x (without text)


5th part (play 3rd part without text):

Am
We're ...
G
Into ..
     Am  
Your ..
     G
With ...
            Am         G
Of ..

              Am       G
Your ... and fade out



E9sus4: x77777



Please send me corrections/modifications in the chords or tabs if you 
think it doesn't sound as it should for you.

"For those with an eye for the finer details, we salute you..."

     
Добавлено: 04.09.2013
Вам также может быть интересно:
Другие материалы по этой песне:
  • Аккорды и текст

Страница создана 25.02.2012
http://primanota.ru/frankie-goes-to-hollywood/black-night-white-light-chords.htm
Привет, Гость.
Предлагаем пройти революционный курс по гитаре.
Подарок от PrimaNota.Ru, забирай!